Oops, an error
Loading. Please wait.

Pretty Handsome Awkward tab

version 1
version 1

Whole song

Interactive

79,888 views 51 this week
27 commentsread comments
1 2 3 4 5
x 25
add to favorites
×
Save as Personal and add changes to this tab that will be seen only by you. Learn more ›
×
You can save this tab as Personal to edit and correct it or add notes. All changes will be seen only by you. Learn more »
launch autoscroll
font size
0
reset
how to read this tab
guitar tuner
backing track
0:00
0:00
edit
Autoscroll
slow
fast
+/-
esc
set tempo
stop
----------------------------------------------------------------------------
                 Pretty Handsome Awkward - The Used
----------------------------------------------------------------------------


Tabbed by: kiefermatot


Tuning: Drop-D


I'm still working on the little solo at the end. I just wanted to get this up for 
as soon as I could, since there are no other versions.

If you have any questions or corrections leave a comment. Thank you!


Intro: 0:00 - 0:20

                        x3
e|------------------------|----------------------|
B|------------------------|----------------------|
G|------------------------|----------------------|
D|------------------------|----------------------|
A|--------5---------------|----------------------|
E|-0h3h5-----0:0:0:0:0:---|---0h3h5p3-3:3:3:5:5:-|

                       x3
e|-----------------------|--------------------------------|
B|-----------------------|--------------------------------|
G|-----------------------|--------------------------------|
D|-----------0:0:0:0:0:--|-------3--3:3:3:5:5:------------|
A|--------5--0:0:0:0:0:--|-------3--3:3:3:5:5:------------|
E|-0h3h5-----0:0:0:0:0:--|-0h3h5p3--3:3:3:5:5:------------|


Verse: 0:20 - 0:38
                        x3
e|------------------------|----------------------|
B|------------------------|----------------------|
G|------------------------|----------------------|
D|------------------------|----------------------|
A|--------5---------------|----------------------|
E|-0h3h5-----0:0:0:0:0:---|---0h3h5p3-3:3:3:5:5:-|


Pre-Chorus: 0:38 - 0:43

Slide all the way up the neck, I also think there is a strange 
effect used here aswell.
e|-----------------|
B|-----------------|
G|-----------------|
D|-3/--------------|
A|-3/--------------|
E|-3/--------------|

Chorus: 0:43 - 1:00
e|------------------------------------------------------|
B|------------------------------------------------------|
G|------------------------------------------------------|
D|-0000000-3333333-10101010101010--9--9--9--9--9--9--9--|
A|-0000000-3333333-10101010101010--10-10-10-10-10-10-10-| x2
E|-0000000-3333333-10101010101010--9--9--9--9--9--9--9--|
                    ^ ten's.



Post-Chorus: 1:00 - 1:09

                       x3
e|-----------------------|--------------------------------|
B|-----------------------|--------------------------------|
G|-----------------------|--------------------------------|
D|-----------0:0:0:0:0:--|-------3--3:3:3:5:5:------------|
A|--------5--0:0:0:0:0:--|-------3--3:3:3:5:5:------------|
E|-0h3h5-----0:0:0:0:0:--|-0h3h5p3--3:3:3:5:5:------------|




Verse: 1:09 - 1:29

Bass plays this before
guitar comes in again:
                       x3|e|--------------------------------|
                         |B|--------------------------------|
G|-----------------------|G|--------------------------------|
D|-----------------------|D|-------3--3:3:3:5:5:------------|
A|--------5--------------|A|-------3--3:3:3:5:5:------------|
D|-0h3h5-----0:0:0:0:0:--|D|-0h3h5p3--3:3:3:5:5:------------|


                       x3
e|-----------------------|--------------------------------|
B|-----------0:0:0:0:0:--|--------------------------------|
G|-----------0:0:0:0:0:--|--------------------------------|
D|-----------0:0:0:0:0:--|-------3--3:3:3:5:5:------------|
A|--------5--0:0:0:0:0:--|-------3--3:3:3:5:5:------------|
E|-0h3h5-----0:0:0:0:0:--|-0h3h5p3--3:3:3:5:5:------------|



Repeat Chorus x2  1:29 - 1:47



Bridge: 1:47 - 2:24


         x1                                   x2
e|---------|-----------------------------------|
B|---------|-----------------------------------|
G|---------|-----------------------------------|
D|-xxx--0~-|---------0~----3~-----10~----9~----|
A|-xxx--0~-|-------0~-----3~----10~----10~-----|
D|-xxx--0~-|-----0~------3~---10~-----9~-------|


e|-------------------------------------------------------------------------|
B|-------------------------------------------------------------------------|
G|-------------------------------------------------------------------------|
D|--------------------------------------------------------33333333-55555555|
A|-0000-0000-0000-0000-0000-0000-0000-0000-0000-0000-0000-33333333-55555555|
D|-0000-0000-0000-0000-0000-0000-0000-0000-0000-0000-0000-33333333-55555555|
PM .... .... .... .... .... .... .... .... .... .... .... ........ ........




Pre-chorus: 2:24 - 2:33

                       x3
e|-----------------------|--------------------------------|
B|-----------------------|--------------------------------|
G|-----------------------|--------------------------------|
D|-----------0:0:0:0:0:--|-------3--3:3:3:5:5:------------|
A|--------5--0:0:0:0:0:--|-------3--3:3:3:5:5:------------|
E|-0h3h5-----0:0:0:0:0:--|-0h3h5p3--3:3:3:5:5:------------|



Final Chorus: 2:33 - 3:08

e|------------------------------------------------------|
B|------------------------------------------------------|
G|------------------------------------------------------|
D|-0000000-3333333-10101010101010--9--9--9--9--9--9--9--|
A|-0000000-3333333-10101010101010--10-10-10-10-10-10-10-| x4
E|-0000000-3333333-10101010101010--9--9--9--9--9--9--9--|
                    ^ ten's.



 Solo:  This is played behind the final chorus, until the end of the song.
         
e|--------------------------------------------------------|
B|--13b15-------13b15---13~-----11b13---------------------|
G|--------------------------------------------------------|
D|--12-----------------------------------10*--------------|
A|--------------------------------------------------------|
D|--------------------------------------------------------|


  
e|------------------------------------------------13----------------|
B|---------------------------------------13b15----------13----13b15-|
G|----------------------------------14------------------------------|
D|------------------12------14--12-------12-------------------------|
A|--14------12--14------14------------------------------------------|
D|------------------------------------------------------------------|


    
e|---------------------------------------------------|
B|--13-----------------------------------------------|
G|---------12b14r--10--------------------------------|
D|----------------------12~------14~----15~----17~---|
A|---------------------------------------------------|
D|---------------------------------------------------|


      
e|---------------------------------------------------------13b15~-|
B|----------------------------------------------------------------|
G|--14~------16~----17~----19~-----17b19-----------17b19r---------|
D|----------------------------------------------------------------|
A|----------------------------------------------------------------|
D|----------------------------------------------------------------|




Outro: 3:08 - End

                    x3
e|-----------------------|--------------------------------|
B|-----------------------|--------------------------------|
G|-----------------------|--------------------------------|
D|-----------0:0:0:0:0:--|-------3--3:3:3:5:5:------------|
A|--------5--0:0:0:0:0:--|-------3--3:3:3:5:5:------------|
E|-0h3h5-----0:0:0:0:0:--|-0h3h5p3--3:3:3:5:5:------------|

                    x3
e|-----------------------|--------------------------------|
B|-----------------------|--------------------------------|
G|--------8--------------|-------8------------------------|
D|--------8--0:0:0:0:0:--|-------8--3:3:3:5:5:------------|
A|--------6--0:0:0:0:0:--|-------6--3:3:3:5:5:------------|
E|-0h3h5-----0:0:0:0:0:--|-0h3h5----3:3:3:5:5:------------|

e|---------------------------|
B|---------------------------|
G|---------------------------|
D|----------3:3:3:5:5:-------|
A|----------3:3:3:5:5:-------|
E|-0h3h5p3--3:3:3:5:5:-------|

e|-----------------------------------------------|
B|-----------------------------------------------|
G|-----------------------------------------------|
D|-------------------------------------6-5-3-0~--|
A|-------0h3h5------0h3h5-------0h3h5--6-5-3-0~--|
E|-0h3h5-------0h3h5------0h3h5--------6-5-3-0~--|



| /  slide up
| \  slide down
| h  hammer-on
| p  pull-off
| ~  vibrato
| *  harmonic
| x  Mute note
============================================================================
Suggest correction
Creating personal tab
Creating personal tab
You can edit any tab online and save it as your Personal.

You can edit, replace or remove any tab part or add personal notes – all changes will be seen only by you.

Personal tabs can be accessed anytime from any device, even offline.
Learn more »
comments
print report bad tab
27 comments total. Showing first comments.
0 reply
hellbassist1 1,535 May 24, 2007 02:14 AM

lol well there is a version like exactly the same and its under handsome awkward lol. but this looks surprisingly like my guitar pro tab lol. anyways well done 5 stars :)

0 reply
f1f2 774 May 24, 2007 05:41 PM

well done, 5 stars
i'm kinda disappointed on LFTL... no i'm not :)

0 reply
paul 21 21 10 May 29, 2007 01:39 PM

what is wrong with you people, this isn't well done, he doesnt even have the verses right

guest
You may want to rate the tab now too:
select rating
Wanna post a correction for this tab? Suggest correction