Oops, an error
Loading. Please wait.

Pretty Hansome Awkward Bass Tab

2,335 views 1 this week
3 commentsread comments
1 2 3 4 5
accurate
x 6
add to favorites
launch autoscroll
font size
0
reset
guitar tuner
Tab Pro tools
  • play this tab
  • loop segment
  • change instrument
  • show fretboard
  • metronome
×
Best way to learn
"Pretty Hansome Awkward"
Autoscroll
slow
fast
+/-
esc
set tempo
stop
Contributor
Difficulty
intermediate
The Used
Pretty Handsome Awkward

Drop D Tunning

Intro
G|------------------------------------------------------------||
D|------------------------------------------------------------||
A|------------5------------------5----------------------------||
D|-XXXX-0h3h5---0-0-0-0-0-0h3h5---0-0-0-0-0-0h3h5-3~3-3-3-5~5-||

Verse 1
G|--------------------------------------------------------||
D|--------------------------------------------------------||
A|--------5------------------5----------------------------||
D|--0h3h5---0-0-0-0-0-0h3h5---0-0-0-0-0-0h3h5-3~3-3-3-5~5-||

Pre-Chorus
G|-----------||
D|-----------||
A|-----------||
D|-0~/12-XXXX||

Chorus
G|----------------------------------------------||
D|--------------------------h3h5----------------||
A|-------------------3~333h5-----0~0000---------||
D|-0~000000-5~555555--------------------3~33333-||

Verse 2
G|--------------------------------------------------------||
D|--------------------------------------------------------||
A|--------5------------------5----------------------------||
D|--0h3h5---0---0---0-0h3h5---0---0---0-0h3h5-3~3-3-3-5~5-||

G|--------------------------------------------------------||
D|--------------------------------------------------------||
A|--------5------------------5----------------------------||
D|--0h3h5---0-0-0-0-0-0h3h5---0-0-0-0-0-0h3h5-3~3-3-3-5~5-||

Chorus
G|----------------------------------------------||
D|--------------------------h3h5----------------||
A|-------------------3~333h5-----0~0000---------||
D|-0~000000-5~555555--------------------3~33333-||

Bridge
G|--------------------------||
D|--------------------------||
A|-------3~-2~--------3~-2~-||
D|-0~-3~--------0~-3~-------||

G|---------------------------------------------------||
D|---------------------------------------------------||
A|---------------------------------------------------||
D|-0000-0000-0000-0000-0000-0000-0000-0000-0000-0000-||

G|---------------------------------------------------||
D|---------------------------------------------------||
A|---------------------------------------------------||
D|-0000-0000-0000-0000-0000-0000-0000-0000-0000-0000-||

G|-------------------------------------||
D|-------------------------------------||
A|-------------------------------------||
D|-0000-0000-0000-0000-3-3-3-3-5-5-5-5-||

Pre Chours
G|--------------------------------------------------------||
D|--------------------------------------------------------||
A|--------5------------------5----------------------------||
D|--0h3h5---0-0-0-0-0-0h3h5---0-0-0-0-0-0h3h5-3~3-3-3-5~5-||

Chorus
G|----------------------------------------------||
D|--------------------------h3h5----------------||
A|-------------------3~333h5-----0~0000---------||
D|-0~000000-5~555555--------------------3~33333-||

Outro
G|----------||
D|----------||
A|----------||
D|-6p5p3-0~-||
comments
print report bad tab
3 comments total.
+1 reply
[[.:jess:.]] wrote on July 20 2007, 02:35 pm

gotta love the spelling
"hansome"
haha.
great tab regardless. even though its just like the other one.
5*s.

0 reply
hellbassist1 wrote on July 29 2007, 04:27 pm

what other one? and i spelt it wrong but they wont change the name or let me re submit it lol so anyones free to steal it with the correct spelling which is a bummer.

Thanks for the comments

0 reply
bonjidonk wrote on September 5 2007, 05:10 pm

great job on this tab. the chorus sounds a little off, but still its overall a great tab

I want to post or [tab]
guest
You may want to rate the tab now too:
select rating
Please do not post tabs as comments. Select "correction" instead!