Oops, an error
Loading. Please wait.

Ripper Bass Tab

1,243 views 1 this week
no commentswrite comment
1 2 3 4 5
please rate
add to favorites
launch autoscroll
font size
0
reset
guitar tuner
Tab Pro tools
  • play this tab
  • loop segment
  • change instrument
  • show fretboard
  • metronome
×
Best way to learn
"Ripper"
Autoscroll
slow
fast
+/-
esc
set tempo
stop
Contributor
this is in Drop D

DADG

Intro: bass comes in at 9 seconds


G|------------------------------------------------------|
D|------------------------------------------------------|
A|------------------------------------------------------|
D|-0-2-5-0000-2-5-0-2-5-0-2-5-0-2-5-0-2-5-8888888-101010|  These are tens

Verse  at "makes no difference"

G|---------------------------------------|
D|---------------------------------------|
A|---------------------------------------|
D|-8888888-101010---(pause)8888888-101010|

Chorus "time takes us all" x3...4th time do this-

G|--------------------------------    G|---------------------------|
D|--------------------------------    D|---------------------------|
A|2222222333333333555555555555----    A|2222233333111111-13131313--|
D|--------------------------------    D|---------------------------|(those are one's and thirteens)


back to intro:

G|------------------------------------------------------|
D|------------------------------------------------------|
A|------------------------------------------------------|
D|-0-2-5-0000-2-5-0-2-5-0-2-5-0-2-5-0-2-5-8888888-101010|


2nd verse is the intro:

G|------------------------------------------------------|
D|------------------------------------------------------|
A|------------------------------------------------------|
D|-0-2-5-0000-2-5-0-2-5-0-2-5-0-2-5-0-2-5-8888888-101010|


pause then at "Makes no difference"

G|-------------------|
D|-------------------|
A|-------------------|
D|-8888888888-101010-|


Then Chorus Jeph does some differences that are hard to hear:


G|-----------------------------|
D|-----------------------------|
A|2222222233333335555555-3-5-7-|
D|-----------------------------|

G|-----------------------------|
D|-----------------------------|
A|222222223333333------7777777-| Do the 7'd fast during the little drum roll
D|---------------000000--------|

G|----------------------------------|
D|----------------------7-5-0-0-5-7-|
A|2222222233333335555555------------|
D|----------------------------------|


G|-----------------------|
D|--------------------3--|
A|2222222333333-1-0-1--3-|
D|-----------------------|

then:

G|---------------|
D|---------------|
A|---------------|
D|-0-2-5-0-2-5-0-|

pause: then come in right after the snare drum hits at 1:47

Do this 3 times then add in this the 4th time
G|-------------               G|-----------|
D|-------------               D|-----------|
A|-------------               A|-----6---6-|
D|-0000-000-00-               D|-0000-000--|


then this when Bert starts screaming "Leave My Head"

G|-------------------------------|
D|-------------------------------|
A|-6--6--6-------6--6-6---666666-|
D|--00-00-0-0-0-0-00-0-000-------|


come back in at "SO why am i..."

G|-----------------------------|
D|-----------------------------|
A|2222222233333335555555\/-----|
D|-----------------------------|

G|---------------------------------|
D|----------------7-5-77-0-3-4-5-7-|
A|2222222333333355-----------------|
D|---------------------------------|


G|-----------------------7------|
D|-------------3333333-55--3H35-|
A|2222223333333-----------------|
D|------------------------------|

outro!
G|-------------------------------------------------------------|
D|-------------------------------------------------------------|
A|-------------------------------------------------------------|
D|0-2-5-00-2-5-0-2-5-0-2-5-0-2-5-0-2-5-0-2-5-0-2-5-0-2-5-0-2-5-|
comments
We did not receive enough feedback on this tab! Please rate:
print report bad tab
1 2 3 4 5
I want to post or [tab]
guest
You may want to rate the tab now too:
select rating
Please do not post tabs as comments. Select "correction" instead!