Oops, an error
Loading. Please wait.

Say Days Ago bass

version 3
version 3

Whole song

Interactive

215 views 1 this week
no commentswrite comment
1 2 3 4 5
3 more votes to show rating
add to favorites
×
Save as Personal and add changes to this tab that will be seen only by you. Learn more ›
×
You can save this tab as Personal to edit and correct it or add notes. All changes will be seen only by you. Learn more »
launch autoscroll
font size
0
reset
guitar tuner
edit
Autoscroll
slow
fast
+/-
esc
set tempo
stop
Author
Difficulty
The Used - Say days ago

bass tab

by : doky 2007
taquilleros_de_sudamerica_maroyu_el_grupo_tropical_del_momento@hotmail.com

5-stringed bass
G D A E B

   INTRO
G-|---------|
D-|---------|
A-|---------|
E-|---------|
B-|-3---3---|
                                                                              
   
   VERSO
G-|----------------------|-------------------------|--------|--------------------|
D-|------9-7-5-----2-----|------9-7-5--------2-----|--------|-----9-7-5-9-7-5-99-|
A-|-7777-------333---323-|-7777-------333-00---323-|--------|-7777---------------|
E-|----------------------|-------------------------|--------|--------------------|
B-|----------------------|-------------------------|--------|--------------------|
           *A*                                      + *A* + *
                          
   PRE-CORO 1
G-|----------------|---------------------|
D-|----------------|------9-7-5----------|
A-|----------------|-7777----------------|
E-|----------------|------------00000000-|
B-|----------------|---------------------|
   VERSO HASTA * +                                                                    

   CORO
G-|---------------------|
D-|---------------------|
A-|-5h7-7777-5----------|
E-|------------3-3333-2-|
B-|---------------------|
                                                                              

   BREAK 1
G-|------------------------------|-----|---|-------------|
D-|------------------------------|-----|---|-------------|
A-|-5h7-7777-5555-3333-2222-0000-|-----|---|-------------|
E-|------------------------------|-000-|---|-0---0-------|
B-|------------------------------|-----|---|---------1---|
                                         +                                     

   PRE-CORO 2
G-|----------------|-----------------------------|
D-|----------------|-----------------------------|
A-|----------------|-77-77-999/10-10-10/12-12-12-|
E-|----------------|-----------------------------|
B-|----------------|-----------------------------|
   VERSO HASTA * +                                                             

   BREAK 2
G-|-------------------------------------------|
D-|-------------------------------------------|
A-|-5h7-7777-5555-3333-2222/12h14-14-12h14-14-|
E-|-------------------------------------------|
B-|-------------------------------------------|
                                                                              
   MIDDLE
G-|----------|
D-|----------|
A-|----------|
E-|-0--------|
B-|----------|
                                                                              

   BREAK 3
G-|-------------------------------------|
D-|-------------------------------------|
A-|-5h7-7777-5555-3333-2222-------------|
E-|-----------------------------5-----5-|
B-|-------------------------3h5---3h5---|

Mando calurosas congratulaciones a La Susana, que una vez le he hecho asustar graaaaave con El Gato
y Alastorezaga en mi auto.
ella me ha prestado pues unos cd's, bien tara ooye pero yo le dado haaaaaaaaaaaaaaaaaaarta musica,
casi toda mi lista ps. asi que todavia me debe unos cd's para compensar... quiero pues lo mejor
de Nectar, temas ineditos de Iberia, Maroyu Undergrounds, Maroyu en vivo para El Alto, Veneno - dame
veneno, el baila de la sajta, etc etc.
nos vemos el 2011 en tu preste.

doky2007

            
            
Suggest correction
Creating personal tab
Creating personal tab
You can edit any tab online and save it as your Personal.

You can edit, replace or remove any tab part or add personal notes – all changes will be seen only by you.

Personal tabs can be accessed anytime from any device, even offline.
Learn more »
Give kudos to tab author, rate the tab!
1 2 3 4 5
comments
print report bad tab
guest
You may want to rate the tab now too:
select rating
Wanna post a correction for this tab? Suggest correction