Oops, an error
Loading. Please wait.

Say Days Ago Bass Tab

version 4
version 4

Whole song

Interactive

912 views 3 this week
2 commentsread comments
1 2 3 4 5
accurate
x 4
add to favorites
launch autoscroll
font size
0
reset
guitar tuner
Tab Pro tools
  • play this tab
  • loop segment
  • change instrument
  • show fretboard
  • metronome
×
Best way to learn
"Say Days Ago"
Autoscroll
slow
fast
+/-
esc
set tempo
stop
Contributor
Difficulty
Tuning
novice
D A D G B E
Artist: The Used
Song: Say Days Ago
Album: The Used
Bass: Jeph Howard

Drop D

I like this song very much so here we go^^


0:00 Intro ( Just make some noise with your open strings)
G---0---0---------|
D---0---0---------|
A---0---0---------|
D---0---0---------|

0:13
G-------------------------------------|
D-------------------------------------|
A-------------------------------------|  x4
D-0-0-2-0-0-0-2-0-2-0-0-2-------------|

0:24 Verse1 ( I saw it live it's just like Jeph plays)
G-----------------------------|
D-------7h9 7/--------2-------|
A-7-7-7---------0 2h3---3-2---|  x3
D-----------------------------|

0:32
G-------------------------|
D-------7h9p7 9p7-9-9-9---|
A-7-7-7-------------------|
D-------------------------|

0:35
G-----------------------------|
D-------7h9 7/--------2-------|
A-7-7-7---------0-2h3---3-2---|  x3
D-----------------------------|

0:42 Verse1 End
G---------------------------|
D-------7h9p7-9-9-9-9-9-9-9-|
A-7-7-7---------------------|
D---------------------------|

0:45 Pre-Chorus
G------------------------------|
D------------------------------|
A-7-7-7-7-7-0h5----------------|  x4
D---------------5-5-5-5-5-5----|

0:56 Chorus
G------------------------------------|
D------------------------------------|
A-7(x16)-5(x16)-3(x16)-2(x8)-0(x8)---|
D------------------------------------|

1:07 Bridge1
G-------------------------|
D-------------------------|
A-------------------------|
D-2-2-2--------2-2-2------|

G-------------------------|
D-------------------------|
A-------------------------|
D-2-2-0--------2-2-0------|

Verse2 same as Verse1 (1:17-1:35)

1:36 Verse2 End
G----------------------------------|
D----------------------------------|
A-7-7-7-7-9-9-9-9-10-10-10-12/14\--|
D----------------------------------|

Pre-Chorus (1:39-1:49)

1:49 Chorus2
G-------------------------------------------------------------|
D-------------------------------------------------------------|
A-7(x16)-5(x16)-3(x16)-2(x8)-/14-14-14-14-12h14-14-14-14------|
D---------------------------------------------------------2~--|

2:00 Bridge2

G---------------------------|
D---------------------------|
A---------------------------|
D-2------2-2-2-----2-----2--|

G-------------------------------------|
D-------------------------------------|
A-------------------------------------|
D-2-2-2---2-2-2----2-2-2----2-2-2-----|

2:38 Chorus 3

G--------------------------------------------------|
D--------------------------------------------------|
A-7(x16)-5(x16)-3(x16)-2(x8)-0-0-0-x-0-0-0-0-x-0---|  x2
D--------------------------------------------------|

3:00

G-------------|
D-------------|
A-------------|
D-2-2-2-------|

That's it ;) Enjoy it^^
comments
print report bad tab
2 comments total.
0 reply
fenderbassdude wrote on February 14 2008, 06:32 pm

thank you finally some one who can tab worth a shit

0 reply
NemX162 wrote on December 28 2010, 12:32 pm

Thanks for the good tab. I've just switched to bass from guitar, and it seems like a lot of the bass tabs on this site down-right suck. People don't even know what tuning bands play in.

Keep up the good work.

I want to post or [tab]
guest
You may want to rate the tab now too:
select rating
Please do not post tabs as comments. Select "correction" instead!