Oops, an error
Loading. Please wait.

Slit Your Own Throat tab

version 1
version 1

Whole song

2,814 views 1 this week
1 commentread comment
1 2 3 4 5
x 6
add to favorites
×
Save as Personal and add changes to this tab that will be seen only by you. Learn more ›
×
You can save this tab as Personal to edit and correct it or add notes. All changes will be seen only by you. Learn more »
launch autoscroll
font size
0
reset
how to read this tab
guitar tuner
edit
Autoscroll
slow
fast
+/-
esc
set tempo
stop
Author
Difficulty
i couldnt find this song anywere i think this is first tab so its not 100%
...the rythm guitar is correct but some lead parts are off or i didnt tab them i will 
to update it later
Tabed by: Dennis
guitar  intro 2  on bottom of tab
guitar 1 (Intro)
e-------------------------------------------------------------------|
b-------------------------------------------------------------------|
g-------------------------------------------------------------------|
d-8-7-0~-8-7-0~-8-7-3~-8-7-5----------------------------------------|
a-8-7-0~-8-7-0~-8-7-3~-8-7-5----------------------------------------|
D-8-7-0~-8-7-0~-8-7-3~-8-7-5----------------------------------------|

guitar 1 (intro part 2)
e-----------------------------|
b-----------------------------|
g-----------------------------|
d-0------3------5------8----7-|
a-0(x16)-3(x16)-5(x16)-8(x8)--|7(x8)
D-0------3------5------8----7-|

Verse guitar 1
e--------------------------------------|
b--------------------------------------|
g--------------------------------------|
d-0-----8-----5-----7777-7-10101010-10-|
a-0(x16)8(x16)5(x16)7777-7-10101010-10-|  -repeat twice
D-0-----8-----5-----7777-7-10101010-10-|
 pm....Pm....PM....|
*note- accent first note)

chorus guitar 1*
e-------------------------------------|
b-------------------------------------|
g-------------------------------------|
d-8-----0-----5----/8 ---0000-0-000-0-| -  Repeat twice
a-8(x16)0(x16)5(x8)/8(x8)0000-0-000-0-|
D-8-----0-----5 ---/8----0000-0-000-0-|
                     (go slit your own throat)

verse 2 guitar 1
rest intill he says
(not gonna take this)
e-------------------- ---------------------------------------|
b--------------------- --------------------------------------|
g---------------------  -------------------------------------|
d-7777-7-10101010-10--  0-----8-----5-----7777-7-10101010-10-|
a-7777-7-10101010-10--- 0(x16)8(x16)5(x16)7777-7-10101010-10-|
D-7777-7-10101010-10--- 0-----8-----5-----7777-7-10101010-10-|

chorus guitar 1*
e-------------------------------------|
b-------------------------------------|
g-------------------------------------|
d-8-----0-----5----/8 ---0000-0-000-0-| -  Repeat twice
a-8(x16)0(x16)5(x8)/8(x8)0000-0-000-0-|
D-8-----0-----5 ---/8----0000-0-000-0-|
                     (go slit your own throat)
breakdown guitar 1
e-----------------|
b-----------------|
g-----------------|
d-----------------|
a-----------------|
D-8-77-00-8-77-00-|  repeat many times
 Pm.............

breakdown part 2
e--------------------------|
b--------------------------|
g--------------------------|(played quitely not palm muted)
d-0-----3------5-----8-----|
a-0(x16)3((x16)5(x16)8(x16) repeat twice
D-0-----3------5-----8

chorus guitar 1*
e-------------------------------------|
b-------------------------------------|
g-------------------------------------|
d-8-----0-----5----/8 ---0000-0-000-0-| -  Repeat twice
a-8(x16)0(x16)5(x8)/8(x8)0000-0-000-0-|
D-8-----0-----5 ---/8----0000-0-000-0-|
                     (go slit your own throat)

outro
e
b                 end on
g              ||********************
d-0000-0-000-0 || 8-7-0~
a-0000-0-000-0 ||-8-7-0~
D-0000-0-000-0 || 8-7-0~
repeat 4 times

guitar 2 intro very tricky im not sure what he does but heres a guess to get you started
e---------------------------------------------5h6--|
b        --8-6-5-6-5--5-6-5---------8-6-5-6-5----6-|
g-5-7-5-7------------7-----7-5-7-5-7---------7-----|
d--------------------------------------------------| repeat twice
a--------------------------------------------------|
D--------------------------------------------------|
Suggest correction
Creating personal tab
Creating personal tab
You can edit any tab online and save it as your Personal.

You can edit, replace or remove any tab part or add personal notes – all changes will be seen only by you.

Personal tabs can be accessed anytime from any device, even offline.
Learn more »
comments
print report bad tab
1 comment total.
0 reply
mcollazo87 10 Jul 30, 2007 03:53 PM

great tab. work on the rift in the intro and its 100%

guest
You may want to rate the tab now too:
select rating
Wanna post a correction for this tab? Suggest correction