Oops, an error
Loading. Please wait.

Smother Me Bass Tab

version 1
version 1

Whole song

Interactive

1,634 views 1 this week
no commentswrite comment
1 2 3 4 5
excellent!
x 2
add to favorites
launch autoscroll
font size
0
reset
guitar tuner
Tab Pro tools
  • play this tab
  • loop segment
  • change instrument
  • show fretboard
  • metronome
Autoscroll
slow
fast
+/-
esc
set tempo
stop
Contributor
++++++++++++++++++++++++
| The Used- Smother Me |
++++++++++++++++++++++++


"Hold me too tight..."


Tuning: EADG


1:36
Outro
1.
G|-12/14~---14-12-14----------------------|
D|-------------------14~------------------|
A|------------------------------3~--------|
E|----------------------------------------|

Verse
"Let me be the one who never leaves you all alone..."
2.
G|------------------------------------------------------------------|
D|------------------------------------------------------------------|
A|--------------333333333333--------------333333333333--------------|
E|-111111111111--------------111111111111--------------111111111111-|

----------------------------------------|
--------------------333323--------------|
-333333333333--------------333333333333-|
--------------111111--------------------|


Pre-Chorus
"I found my place..."
3.
G|------------------------------|
D|------------------------------|
A|-----------353--------5~------|
E|-111111-333----555555---------|

Chorus
"Now I can breathe turn my insides out..."
4.
G|------------------------------------------------------------------------------|
D|------------------------------------------------------------------------------|
A|-333333--------000000-111111-333333--------000000-111111-111111-111111-111111-|
E|--------333333----------------------333333------------------------------------|

Bridge
"When Im alone times goes so slow..."
5.
G|-----------------------------------------------------------------------|
D|----------------------------------------------------------------555555-|
A|-555555-888888-000000-000000-555555--------000000-000000---------------|
E|------------------------------------111111---------------333333--------|

Chorus
"Now I can breathe turn my insides out..."
6.
G|---------------------------------------------------------|
D|---------------------------------------------------------|
A|-333333--------000000-111111-333333--------000000-111111-|--x2
E|--------333333----------------------333333---------------|

"Smother me..."
7.
G|---------------|
D|---------------|
A|-111111-111111-|
E|---------------|

Outro
"Let me be the one who calls you baby all the time..."
8.
G|--------------------------------------------------------------------------------------------|
D|--------------------------------------------------------------------------------------------|
A|-1~--------------------3~-------------------------3~--------------------------3~------------|
E|---------1~-------------------------1~--------------------------1~--------------------------|


Please rate thanks!!


Lyrics:

Let me be the one who calls you baby
All the time
Surely you can take some comfort
Knowing that you're mine
Just hold me tight, lay by my side
and let me be the one who calls you
Baby all the time

I found my place in the world
Could stare at your face for the rest of my days

Now I can breathe, turn my insides out
and Smother me
Warm and alive I'm all over you
would you smother me?

Let me be the one who never leaves
You all alone
I hold my breath and lose the feeling
That I'm on my own
Hold me too tight stay by my side
and let me be the one who calls you
Baby all the time

When I'm alone time goes so slow
I need you here with me
and how my mistakes have made
Your heart break
Still I need you here with me
Baby I'm here



+++++++++++++++++++++++++++++++++
| Raileff                       |
| Underground__Dora@Hotmail.Com | 
+++++++++++++++++++++++++++++++++
comments
We did not receive enough feedback on this tab! Please rate:
print report bad tab
1 2 3 4 5
I want to post or [tab]
guest
You may want to rate the tab now too:
select rating
Please do not post tabs as comments. Select "correction" instead!