Oops, an error
Loading. Please wait.

Smother Me tab

version 1
version 1

Whole song

Interactive

38,545 views 9 this week
9 commentsread comments
1 2 3 4 5
x 12
add to favorites
×
Save as Personal and add changes to this tab that will be seen only by you. Learn more ›
×
You can save this tab as Personal to edit and correct it or add notes. All changes will be seen only by you. Learn more »
launch autoscroll
font size
0
reset
how to read this tab
guitar tuner
edit
Autoscroll
slow
fast
+/-
esc
set tempo
stop
Author
Song Title: Smother Me
Artist: The Used
Album: Lies For The Liars


Ins.:
	Piano 1 – Bert McCracken
	Piano 2 – Bert McCracken
	Gtr 1 – Quinn Allman


Tuning: Dropped D Tuning (eBGDAD)


I. INTRO

Piano 1
e|--------------------------------------------------------------------------|
B|-----5--5-----5--5-----5--5-----5--5-----5--5-----5--5-----5--5-----5--5--|
G|-----5--5-----5--5-----5--5-----5--5-----5--5-----5--5-----5--5-----5--5--|
D|--------------------------------------5--------5--------5--------5--------|
A|--3--------3--------3--------3--------3--------3--------3--------3--------|
D|--3--------3--------3--------3--------------------------------------------|
(continued)
e|-------------------------------------------------------------|
B|-----5--5-----5--5-----5--5-----5--5-----5--5-----5--5-------|
G|-----5--5-----5--5-----5--5-----5--5-----5--5-----5--5-------|
D|--------------------------------------5--------5--------5~~--|
A|--3--------3--------3--------3--------3--------3--------3~~--|
D|--3--------3--------3--------3-------------------------------|



II. VERSE 1

Piano 1
e|--------------------------------------------------------------------------|4x
B|-----5--5-----5--5-----5--5-----5--5-----5--5-----5--5-----5--5-----5--5--|
G|-----5--5-----5--5-----5--5-----5--5-----5--5-----5--5-----5--5-----5--5--|
D|--------------------------------------5--------5--------5--------5--------|
A|--3--------3--------3--------3--------3--------3--------3--------3--------|
D|--3--------3--------3--------3--------------------------------------------|



III. REFRAIN 1

Piano 1
e|----------0----------------|----------0--------|
B|------------3-------3-5----|------------3------|
G|--------2---------------5--|--------2----------|
D|------3-----------5--------|------3------------|
A|--3-3---------5-5----------|--3-3---------5~~--|
D|--3-----------5------------|--3-----------5~~--|



IV. CHORUS 1

Piano 1
e|---------------------------|---------------------------|2x
B|----------5---------3------|--------1---------3--------|
G|------5-----5---------4----|------2---2---------3-2-3--|
D|--5-5---5---------5-----5--|--2-2-------2---3----------|
A|--3-----------5-5----------|--0-----------1------------|
D|--------------5------------|---------------------------|



V. POST – CHORUS

Piano 1
e|--12-13-12-----|--------------------8-10-8~~--|
B|-----------13--|--10-8-10-8-10-8-10-----------|
G|---------------|------------------------------|
D|---------------|------------------------------|
A|---------------|------------------------------|
D|---------------|------------------------------|
(continued)
e|--12-13-12-----|------------------------------|
B|-----------13--|--10-8-10-8-10-8-10-8-10------|
G|---------------|-------------------------9~~--|
D|---------------|------------------------------|
A|---------------|------------------------------|
D|---------------|------------------------------|

Piano 2
(Starts on the second bar of Gtr 1)
e|--------------------------------------------------------------------------|
B|-----5--5-----5--5-----5--5-----5--5-----5--5-----5--5-----5--5-----5--5--|
G|-----5--5-----5--5-----5--5-----5--5-----5--5-----5--5-----5--5-----5--5--|
D|--------------------------------------5--------5--------5--------5--------|
A|--3--------3--------3--------3--------3--------3--------3--------3--------|
D|--3--------3--------3--------3--------------------------------------------|
(continued)
e|-------------------------------------------------------------|
B|-----5--5-----5--5-----5--5-----5--5-----5--5-----5--5-------|
G|-----5--5-----5--5-----5--5-----5--5-----5--5-----5--5-------|
D|--------------------------------------5--------5--------5~~--|
A|--3--------3--------3--------3--------3--------3--------3~~--|
D|--3--------3--------3--------3-------------------------------|



VI. VERSE 2

Piano 1
e|--------------------------------------------------------------------------|4x
B|-----5--5-----5--5-----5--5-----5--5-----5--5-----5--5-----5--5-----5--5--|
G|-----5--5-----5--5-----5--5-----5--5-----5--5-----5--5-----5--5-----5--5--|
D|--------------------------------------5--------5--------5--------5--------|
A|--3--------3--------3--------3--------3--------3--------3--------3--------|
D|--3--------3--------3--------3--------------------------------------------|

Gtr 1
(Figure correct timing.)
e|-----12-13-12--------12-13-12~~-13-12-13-------|2x
B|--13-----------13-15---------------------13~~--|
G|-----------------------------------------------|
D|-----------------------------------------------|
A|-----------------------------------------------|
D|-----------------------------------------------|
(continued)
e|--13-12----------13-12----12-------------12-13-12-------12-13-12-----|
B|--------13-10~~--------13----15-13~~--13----------13~~-----------13--|
G|---------------------------------------------------------------------|
D|---------------------------------------------------------------------|
A|---------------------------------------------------------------------|
D|---------------------------------------------------------------------|
(continued)
e|-----12-13-12--------12-13-12~~-13-12-13-------|
B|--13-----------13-15---------------------13~~--|
G|-----------------------------------------------|
D|-----------------------------------------------|
A|-----------------------------------------------|
D|-----------------------------------------------|



VII. REFRAIN 2

Piano 1
e|----------0----------------|----------0--------|
B|------------3-------3-5----|------------3------|
G|--------2---------------5--|--------2----------|
D|------3-----------5--------|------3------------|
A|--3-3---------5-5----------|--3-3---------5~~--|
D|--3-----------5------------|--3-----------5~~--|

Gtr 1
e|----------0----------------|----------0--------|
B|------------3-------3-5-3--|------------1-3~~--|
G|--------2------------------|--------2----------|
D|------3-----------5--------|------3------------|
A|----3-----------5----------|----3--------------|
D|--3-----------5------------|--3----------------|



VIII. CHORUS 2

Piano 1
e|---------------------------|---------------------------|2x
B|----------5---------3------|--------1---------3--------|
G|------5-----5---------4----|------2---2---------3-2-3--|
D|--5-5---5---------5-----5--|--2-2-------2---3----------|
A|--3-----------5-5----------|--0-----------1------------|
D|--------------5------------|---------------------------|

Gtr 1
(Just strum/pluck these chords.)
e|--C-----------G------------|--Am----------Bb-----------|2x
B|--5~~----------------------|--1~~---------3~~----------|
G|--5~~---------4~~----------|--2~~---------3~~----------|
D|--5~~---------5~~----------|--2~~---------3~~----------|
A|--3~~---------5~~----------|--0~~---------1~~----------|
D|--------------5~~----------|---------------------------|



IX. BRIDGE
(Just pluck/strum these chords.)

Piano 1/Gtr 1
e|--Dm-----Repeat 2x--------Am---|-------------------|
B|--6~~---------F-----------1~~--|--G-----------G----|
G|--7~~--------(2)~---------2~~--|--4~~---------4~~--|
D|--7~~---------3~~---------2~~--|--5~~---------5~~--|
A|--5~~---------3~~---------0~~--|--5~~---------5~~--|
D|--------------3~~--------------|--5~~---------5~~--|

[Repeat CHORUS 2 2x]


X. OUTRO

Piano 1
e|--12-13-12----------------------8-10-8~~--|
B|-----------13-10-8-10-8-10-8-10-----------|
G|------------------------------------------|
D|------------------------------------------|
A|------------------------------------------|
D|------------------------------------------|
(continued)
e|--12-13-12--------------------------------|
B|-----------13-10-8-10-8-10-8-10-8-10------|
G|-------------------------------------9~~--|
D|------------------------------------------|
A|------------------------------------------|
D|------------------------------------------|
(continued)
e|--12-13-12----------------------8~~--|
B|-----------13-10-8-10-8-10-8-10------|
G|-------------------------------------|
D|-------------------------------------|
A|-------------------------------------|
D|-------------------------------------|

Gtr 1
e|--------------------------------------------------------------------------|2x
B|-----5--5-----5--5-----5--5-----5--5-----5--5-----5--5-----5--5-----5--5--|
G|-----5--5-----5--5-----5--5-----5--5-----5--5-----5--5-----5--5-----5--5--|
D|--------------------------------------5--------5--------5--------5--------|
A|--3--------3--------3--------3--------3--------3--------3--------3--------|
D|--3--------3--------3--------3--------------------------------------------|
(continued)
e|-------------------------------------------|
B|-----5--5-----5--5-----5--5-----5--5-------|
G|-----5--5-----5--5-----5--5-----5--5-------|
D|--------------------------------------5~~--|
A|--3--------3--------3--------3--------3~~--|
D|--3--------3--------3--------3-------------|
Suggest correction
Creating personal tab
Creating personal tab
You can edit any tab online and save it as your Personal.

You can edit, replace or remove any tab part or add personal notes – all changes will be seen only by you.

Personal tabs can be accessed anytime from any device, even offline.
Learn more »
comments
print report bad tab
9 comments total. Showing first comments.
+1 reply
lies_liars 10 May 29, 2007 04:22 AM

Bert owns that piano! hahah!
Nice tab!

+2 reply
The Spoon 165 May 29, 2007 10:46 AM

casadilla

0 reply
f1f2 774 Jul 05, 2007 01:35 AM

^ what?

guest
You may want to rate the tab now too:
select rating
Wanna post a correction for this tab? Suggest correction