Oops, an error
Loading. Please wait.

Sound Effects And Over Dramatics Bass Tab

version 1
version 1

Whole song

Interactive

1,798 views 1 this week
no commentswrite comment
1 2 3 4 5
accurate
x 5
add to favorites
launch autoscroll
font size
0
reset
guitar tuner
Tab Pro tools
  • play this tab
  • loop segment
  • change instrument
  • show fretboard
  • metronome
Autoscroll
slow
fast
+/-
esc
set tempo
stop
Difficulty
advanced
Band:the used
Song:Sound Effects And Overdramattics
Tabber:josh
Album:in love in death
Tuning:standard


:INTRO:
G---------------------------------------------------------------------------|
D---------------------------------------------------------------------------|
A---------------------------------------------------------------------------|
E--000-000-000-000-000--1---------------------------------------------------|
PLAY THIS UNTIL SECOND PT PUT YOUR HAND SLIGHTLY OVER THE BRIDGE TO MAKE A HEAVYER SOUND
:SECOND PT:
G---------------------------------------------------------------------------|
D---------------------------------------------------------------------------|
A-----5---5---5---55---4---4---4---44---------------------------------------|
E--222-222-222-222--111-111-111-111-----------------------------------------|
:VERSE:
G---------------------------------------------------------------------------|
D--8-----8-9--8-----8-9-----8------------8-------------8--------------------|
A----5~-6-6-7~--5~-6-6-7-888--5-4-3-4-555-5-4-3-2-3-444-5-5434\-------------|
E---------------------------------------------------------------------------|
:PRE CHORUS:
G---------------------------------------------------------------------------|
D-----78---78---78---78---56---56---56--------------------------------------|
A--987--987--987--987--765--765--765--765\----------------------------------|
E---------------------------------------------------------------------------|
:CHORUS:
G---------------------------------------------------------------------------|
D---------------------------------------------------------------------------|
A-----5---5---5---55---4---4---4---44---------------------------------------|
E--222-222-222-222--111-111-111-111-----------------------------------------|
:VERSE:
G---------------------------------------------------------------------------|
D--8-----8-9--8-----8-9-----8------------8-------------8--------------------|
A----5~-6-6-7~--5~-6-6-7-888--5-4-3-4-555-5-4-3-2-3-444-5-5434\-------------|
E---------------------------------------------------------------------------|
:PRE CHORUS:
G---------------------------------------------------------------------------|
D-----78---78---78---78---56---56---56--------------------------------------|
A--987--987--987--987--765--765--765--765\----------------------------------|
E---------------------------------------------------------------------------|
:CHORUS:
G---------------------------------------------------------------------------|
D---------------------------------------------------------------------------|
A-----5---5---5---55---4---4---4---44---------------------------------------|
E--222-222-222-222--111-111-111-111-----------------------------------------|
G---------------------------------------------------------------------------|
D---------------------------------------------------------------------------|
A---------------------------------------------------------------------------|
E--222-222-222-222--111-111-111-111-----------------------------------------|
:BRIDGE PT1:
G--------------------------------------------------------------------------------------|
D--------------------------------------------------------------------------------------|
A--------------------------------------------------------------------------------------|
E--33-33-3333--22-22-2222--11-11-1111--44-44-4444--33-33-3333(2X)--9~---------5~---3~--|
:PART 2:
G---------------------------------------------------------------------------|
D---------------------------------------------------------------------------|
A--------------------332\---------------------------------------------------|
E--222\-222\-222\-222----222\-222\-222\-222---------------------------------|
:END BRIDGE:
G---------------------------------------------------------------------------|
D---------------------------------------------------------------------------|
A--987054307650979~--987076505430979----------------------------------------|
E---------------------------------------------------------------------------|
:CHORUS:
G---------------------------------------------------------------------------|
D---------------------------------------------------------------------------|
A-----------------55---4---4---4---44---------------------------------------|
E--222-222-222-222--111-111-111-111-----------------------------------------|
G---------------------------------------------------------------------------|
D---------------------------------------------------------------------------|
A---------------------------------------------------------------------------|
E--222-222-222-222--111-111-111-111-----------------------------------------|
:ENDING:
G---------------------------------------------------------------------------|
D---------------------------------------------------------------------------|
A---------------------------------------------------------------------------|
E--999~--999~--999~---------------------------------------------------------|
ENJOY!
PLEASE RATE THIS TAB
PLEASE RATE THIS THIS TA
comments
print report bad tab
I want to post or [tab]
guest
You may want to rate the tab now too:
select rating
Please do not post tabs as comments. Select "correction" instead!