Oops, an error
Loading. Please wait.

Sound Effects And Over Dramatics Bass Tab

version 2
version 2

Whole song

Interactive

1,518 views 3 this week
5 commentsread comments
1 2 3 4 5
accurate
x 5
add to favorites
launch autoscroll
font size
0
reset
guitar tuner
Tab Pro tools
  • play this tab
  • loop segment
  • change instrument
  • show fretboard
  • metronome
×
Best way to learn
"Sound Effects And Over Dramatics"
Autoscroll
slow
fast
+/-
esc
set tempo
stop
Contributor
Difficulty
novice
The Used - Sound Effects and Overdramatics


Tuning: Drop D (D A D G)

Intro/chorus x1
G|------------------------------------------|
D|------------------------------------------|
A|----55---55---55---55---55---55---55---55-|
D|-444--444--444--444--000--000--000--000---|

Verse part 1
G|---------------------------------------------------------------------------|
D|---------------89-------------67-------------45----------------------------|
A|-999-11-99-911----777-9-77-79----555-7-55-57----444-7-44-9-44-11-1111-12-9-|
D|---------------------------------------------------------------------------|

Verse Part 2
G|--------------------------------------------------------------------------|
D|---------------89-------------67-------------45---------------------------|
A|-999-11-99-911----777-9-77-79----555-7-55-57----444-7b--------------------|
D|--------------------------------------------------------------------------|

Chorus
Verse
Chorus x2

Bridge
   x2
G|--------------------------------------------------------------------------|
D|--------------------------------------------------------------------------|
A|-----55-----55---5-----44-----44---4-----22-----22---2-----44-----44---4--|
D|-444----444----4---222----222----2---000----000----0---222----222----2----|

G|------------------------------------------------|
D|------------------------------------------------|
A|------------------------------------------------|
D|-4~---0~--9---/151515---------------------------|

G|---------------------------------------------------------------------|
D|---------------------------------------------------------------------|
A|---------------------------------------------------------------------|
D|444/15\-444/15\-444/15\-444/1616\-000/12\-000/12\-000/12\-000/1213\--|

Mini solo
G|-----------------7-5------------------|
D|---4-------7-6-------7-2-4-2-4-(4)----|
A|-------7-5-----7----------------------|
D|-4---6--------------------------------|

G|-----------------7-5--------------------------------------------|
D|---4-------7-6-------7-2-4-4-4-4--------------------------------|
A|-------7-5-----7------------------------------------------------|
D|-4---6---------------------------2~~~~~~~~~---------------------|

Last Chorus
G|---------------------------------------------------------------------|
D|---------------------------------------------------------------------|
A|-----------------------------55-------55-------55-------55-------55--|
D|-4-4-4---4-4-4--4-4-4--4-4-4----0-0-0----0-0-0----0-0-0----0-0-0-----|

G|--------------------------------------------------------------------------|
D|--------------------------------------------------------------------------|
A|-------55-------55-------55-------55-------55-------55-------55-------55--|
D|-4-4-4----4-4-4----4-4-4----4-4-4----0-0-0----0-0-0----0-0-0----0-0-0-----|


G|------------------------------------------------|
D|------------------------------------------------|
A|------------------------------------------------|
D|-6-6-6-xx-6-6-6-xx-6-6-6-6~~~~------------------|
comments
print report bad tab
5 comments total. Showing first comments.
0 reply
FranKLynn wrote on September 3 2007, 01:33 pm

chorus is way outta wack

0 reply
WildIrish wrote on September 10 2007, 01:55 pm

dont just tell me it sucks give me something to work with lol sent a tab i'll see how it sounds

0 reply
popsicles wrote on August 6 2010, 04:57 am

the "5" on "g" idk it sounds like it would a "6" instead. idk. maybe?

I want to post or [tab]
guest
You may want to rate the tab now too:
select rating
Please do not post tabs as comments. Select "correction" instead!