Oops, an error
Loading. Please wait.

Sound Effects And Over Dramatics Tab

version 2
version 2

Whole song

Interactive

699 views 1 this week
1 commentread comment
1 2 3 4 5
poor
x 1
add to favorites
launch autoscroll
font size
0
reset
how to read this tab
guitar tuner
Tab Pro tools
  • play this tab
  • loop segment
  • change instrument
  • show fretboard
  • metronome
Autoscroll
slow
fast
+/-
esc
set tempo
stop
Contributor
Difficulty
Tuning
intermediate
C# G# C# F# A# D#
----------------------------------------------------------------------------
               SOUND EFFECTS AND OVERDRAMATICS - The Used
----------------------------------------------------------------------------

Tabbed By: SaveTheQueen

My first tab, the song never sounds quite right on the other ones.



Tuning: Drop C#

                                              
Intro:                                         _
e|-----------------------------------------|    \
B|-------7-7-------7-7-------7-7-------7-7-|    | 
G|-------7-7-------7-7-------7-7-------7-7-|    |
D|-4-4-4-----4-4-4-----4-4-4-----4-4-4-----|    |
A|-4-4-4-----4-4-4-----4-4-4-----4-4-4-----|    |
D|-4-4-4-----4-4-4-----4-4-4-----4-4-4-----|    \
                                                /  
e|-----------------------------------------|    |
B|-------7-7-------7-7-------7-7-------7-7-|    |
G|-------7-7-------7-7-------7-7-------7-7-|    |
D|-0-0-0-----0-0-0-----0-0-0-----0-0-0-----|    |
A|-0-0-0-----0-0-0-----0-0-0-----0-0-0-----|    |
D|-0-0-0-----0-0-0-----0-0-0-----0-0-0-----|   _/


Verse: Small amounts of distortion
e|-------------------------------------------------------------|
B|-------------------------------------------------------------|
G|-------------------------------------------------------------|
D|-------------------------------------------------------------|
A|-------1----------0-1-3----------1------------0-1-3----------|
D|-5-5-5---5-5-5-5-----------3-3-3---3-3-3-3-------------------|

e|-------------------------------------------------------------|
B|-------------------------------------------------------------|
G|-------------------------------------------------------------|
D|-------------------------------------------------------------|
A|-------1----------0-1-3----------1------------0-1-3----------|
D|-1-1-1---1-1-1-1-----------0-0-0---0-0-0-0-------------------|

   

Pre-Chorus: Pretty much same as before, with a few notes left out.
e|-------------------------------------------------------------|
B|-------------------------------------------------------------|
G|-------------------------------------------------------------|
D|----------------------------------------------------0--------|
A|-------0-1-3--------0-1-3--------0-1-3--------0-1---0--------|
D|-5-5-5--------3-3-3--------1-1-1--------0-0-0-------0--------|


Chorus:                                        _
e|-----------------------------------------|    \
B|-------7-7-------7-7-------7-7-------7-7-|    | 
G|-------7-7-------7-7-------7-7-------7-7-|    |
D|-4-4-4-----4-4-4-----4-4-4-----4-4-4-----|    |
A|-4-4-4-----4-4-4-----4-4-4-----4-4-4-----|    |
D|-4-4-4-----4-4-4-----4-4-4-----4-4-4-----|    \
                                                /  
e|-----------------------------------------|    |
B|-------7-7-------7-7-------7-7-------7-7-|    |
G|-------7-7-------7-7-------7-7-------7-7-|    |
D|-0-0-0-----0-0-0-----0-0-0-----0-0-0-----|    |
A|-0-0-0-----0-0-0-----0-0-0-----0-0-0-----|    |
D|-0-0-0-----0-0-0-----0-0-0-----0-0-0-----|   _/



Interlude:Palm mute                                                 _
e|-----------------------------------------------------------------|  \
B|-----------------------------------------------------------------|  |
G|-----------------------------------------------------------------|  |
D|-----------------------------------------------------------------|  |
A|-------5-5-5-------5-5-5-----5-5-------4-4-4-------4-4-4-----4-4-|  |
D|-4-4-4-------4-4-4-------4-4-----2-2-2-------2-2-2-------2-2-----|  \
                                                                      /
e|-----------------------------------------------------------------|  |
B|-----------------------------------------------------------------|  |
G|-----------------------------------------------------------------|  |
D|-----------------------------------------------------------------|  |
A|-------2-2-2-------2-2-2-----2-2-------4-4-4-------4-4-4-----4-4-|  |
D|-0-0-0-------0-0-0-------0-0-----2-2-2-------2-2-2-------2-2-----| _/ 


Solo/Interlude 2
e|-------------------------------------------------------------------------|
B|-19-19-19-19-19-19-17-17-17-17-17-17-16-16-16-16-16-16-14-14-14-14-14-14-|
G|-------------------------------------------------------------------------|
D|-------------------------------------------------------------------------|
A|-------------------------------------------------------------------------|
D|-------------------------------------------------------------------------|

e|-----------------------------------------------------------------------|
B|-17-17-17-17-17-17-19-19-19-19-19-19-17-17-17-17-17-17-16-16-16-16-16~-|
G|-----------------------------------------------------------------------|
D|-----------------------------------------------------------------------|
A|-----------------------------------------------------------------------|
D|-----------------------------------------------------------------------|


Chorus:                                        _
e|-----------------------------------------|    \
B|-------7---------7---------7---------7---|    | 
G|-------7---------7---------7---------7---|    |
D|-4-4-4-----4-4-4-----4-4-4-----4-4-4-----|    |
A|-4-4-4-----4-4-4-----4-4-4-----4-4-4-----|    |
D|-4-4-4-----4-4-4-----4-4-4-----4-4-4-----|    \
                                                /  
e|-----------------------------------------|    |
B|-------7---------7---------7---------7---|    |
G|-------7---------7---------7---------7---|    |
D|-0-0-0-----0-0-0-----0-0-0-----0-0-0-----|    |
A|-0-0-0-----0-0-0-----0-0-0-----0-0-0-----|    |
D|-0-0-0-----0-0-0-----0-0-0-----0-0-0-----|   _/



Alternate Chorus:                              _
e|-----------------------------------------|    \
B|-------------------------------------7-7-|    | 
G|-------------------------------------7-7-|    |
D|-4-4-4-----4-4-4-----4-4-4-----4-4-4-----|    |
A|-4-4-4-----4-4-4-----4-4-4-----4-4-4-----|    |
D|-4-4-4-----4-4-4-----4-4-4-----4-4-4-----|    \
                                                /  
e|-----------------------------------------|    |
B|-------7-7-------7-7-------7-7-------7-7-|    |
G|-------7-7-------7-7-------7-7-------7-7-|    |
D|-0-0-0-----0-0-0-----0-0-0-----0-0-0-----|    |
A|-0-0-0-----0-0-0-----0-0-0-----0-0-0-----|    |
D|-0-0-0-----0-0-0-----0-0-0-----0-0-0-----|   _/

Outro:
e|----------------------------------|
B|----------------------------------|
G|----------------------------------|
D|-6-6-6-x-x-6-6-6-x-x-6-6-6-x-x-6~-|
A|-6-6-6-x-x-6-6-6-x-x-6-6-6-x-x-6~-|
D|-6-6-6-x-x-6-6-6-x-x-6-6-6-x-x-6~-|


ORDER OF PARTS FOR SONG
Intro x1
Verse x1
Pre-Chorus x1
Chorus x1
Verse x1
Pre-Chorus x1
Chorus x2
Interlude x2
Solo/Interlude 2 x1
Slowed Chrous x1
Alternate Chorus x1
Chorus x1
Outro x1

|  ~  hold note
========================================================================
comments
We did not receive enough feedback on this tab! Please rate:
print report bad tab
1 2 3 4 5
1 comment total.
0 reply
ronhoward wrote on December 9 2010, 06:10 pm

The song is in Drop D and your intro is off.


e|-----------------------------------------|
B|-------3-3-------3-3-------3-3-------3-3-|
G|-------7-7-------7-7-------7-7-------7-7-|
D|-4-4-4-----4-4-4-----4-4-4-----4-4-4-----|
A|-4-4-4-----4-4-4-----4-4-4-----4-4-4-----|
D|-4-4-4-----4-4-4-----4-4-4-----4-4-4-----|

e|-----------------------------------------|
B|-------3-3-------3-3-------3-3-------3-3-|
G|-------6-6-------6-6-------6-6-------6-6-|
D|-0-0-0-----0-0-0-----0-0-0-----0-0-0-----|
A|-0-0-0-----0-0-0-----0-0-0-----0-0-0-----|
D|-0-0-0-----0-0-0-----0-0-0-----0-0-0-----|

The first part has the unison chord and the second is dissonant. Just listen closely and you can hear the difference.

I want to post or [tab]
guest
You may want to rate the tab now too:
select rating
Please do not post tabs as comments. Select "correction" instead!