Oops, an error
Loading. Please wait.

Sound Effects And Over Dramatics Bass Tab

version 3
version 3

Whole song

Interactive

355 views 1 this week
no commentswrite comment
1 2 3 4 5
please rate
add to favorites
launch autoscroll
font size
0
reset
guitar tuner
Tab Pro tools
  • play this tab
  • loop segment
  • change instrument
  • show fretboard
  • metronome
Autoscroll
slow
fast
+/-
esc
set tempo
stop
Contributor
Difficulty
Tuning
intermediate
D A D G B E
so this is what i think it is. not sure its right but sounds fun

Drop D

intro
-------------------------------------------------------------------------|
-------------------------------------------------------------------------|
----5----5----5---5----5----5----5----5----------------------------------|
-444--444-444-444--000--000--000--000------------------------------------|

verse

------------------------------------------------------|
-----7-9-7-----7-9-11-11-11-11-11-11-11-9-7-11-9-7----|
-7h9-------7h9-------------------------------------9--|  X2
------------------------------------------------------|

------77----77----77---77----77----77----77----|
-----------------------------------------------|
--999----999---999--999---777---777---555--5*--|
-----------------------------------------------|

Chorus
-------------------------------------------------|
-------------------------------------------------|
-----55----55----55---55----55----55---55---55---|
-444----444---444--444---000---000--000--000-----|
on first chorus you play this once on the second one you play it 2 times i think

and on the last one you just play the 444  not the 5's for him to scream kill smile cut 
out for me this time and then you play the 000 55

VERSE
CHORUS

Bridge
   x2
|--------------------------------------------------------------------------|
|--------------------------------------------------------------------------|
|-----55-----55---5-----44-----44---4-----22-----22---2-----44-----44---4--|
|-444----444----4---222----222----2---000----000----0---222----222----2----|

|------------------------------------------------|
|------------------------------------------------|
|------------------------------------------------|
|-4~---0~--9---/151515---------------------------|

|---------------------------------------------------------------------|
|---------------------------------------------------------------------|
|---------------------------------------------------------------------|
|444/15\-444/15\-444/15\-444/1616\-000/12\-000/12\-000/12\-000/1213\--|

Mini solo
G|-----------------7-5------------------|
D|---4-------7-6-------7-2-4-2-4-(4)----|
A|-------7-5-----7----------------------|
D|-4---6--------------------------------|

|-----------------7-5--------------------------------------------|
|---4-------7-6-------7-2-4-4-4-4--------------------------------|
|-------7-5-----7------------------------------------------------|
|-4---6---------------------------2~~~~~~~~~---------------------|


choris

ENDING

---------------------------------------------------------------------------|
---------------------------------------------------------------------------|
---------------------------------------------------------------------------|
-00-00-00000---------------------------------------------------------------|
comments
We did not receive enough feedback on this tab! Please rate:
print report bad tab
1 2 3 4 5
I want to post or [tab]
guest
You may want to rate the tab now too:
select rating
Please do not post tabs as comments. Select "correction" instead!