Oops, an error
Loading. Please wait.

Sound Effects And Over Dramtics Bass Tab Bass Tab

985 views 1 this week
2 commentsread comments
1 2 3 4 5
please rate
add to favorites
launch autoscroll
font size
0
reset
guitar tuner
Tab Pro tools
  • play this tab
  • loop segment
  • change instrument
  • show fretboard
  • metronome
×
Best way to learn
"Sound Effects And Over Dramtics Bass Tab"
Autoscroll
slow
fast
+/-
esc
set tempo
stop
Contributor
#-----------------------------------PLEASE NOTE------------------------------------#
#  This file is the author's own work and represents their interpretation of the   #
#  song. The owner of this website has not reviewed the contents of this file. If  #
#  you feel that the content of this file may be violating copyright law, you may  #
#  not use the information displayed here in any way.                              #
#----------------------------------------------------------------------------------#


Intro/chorus x1.. this tab has2 be right. PLZ rate!
its correct and the mini bass solo is kik ass
G|------------------------------------------|
D|------------------------------------------|
A|----55---55---55---55---55---55---55---55-|
D|-444--444--444--444--000--000--000--000---|

Verse part 1
G|---------------------------------------------------------------------------|
D|---------------89-------------67-------------45----------------------------|
A|-999-11-99-911----777-9-77-79----555-7-55-57----444-7-44-9-44-11-1111-12-9-|
D|---------------------------------------------------------------------------|
then...
Verse Part 2
G|---------------------------------------------------------------------------|
D|---------------89-------------67-------------45----------------------------|
A|-999-11-99-911----777-9-77-79----555-7-55-57----444-7b---------------------|
D|---------------------------------------------------------------------------|

Chorus
Verse
Chorus x2

Bridge

G|---------------------------------------------------------------------------|
D|---------------------------------------------------------------------------|
A|-----55-----55---5-----44-----44---4-----22-----22---2-----44-----44---4---|x2
D|-444----444----4---222----222----2---000----000----0---222----222----2-----|

G|------------------------------------------------|
D|------------------------------------------------|
A|------------------------------------------------|
D|-4~---0~--9---/151515---------------------------|

G|---------------------------------------------------------------------|
D|---------------------------------------------------------------------|
A|---------------------------------------------------------------------|
D|444/15\-444/15\-444/15\-444/1616\-000/12\-000/12\-000/12\-000/1213\--|

Mini solo
G|-----------------7-5------------------|
D|---4-------7-6-------7-2-4-2-4-(4)----|
A|-------7-5-----7----------------------|
D|-4---6--------------------------------|

G|-----------------7-5--------------------------------------------|
D|---4-------7-6-------7-2-4-4-4-4--------------------------------|
A|-------7-5-----7------------------------------------------------|
D|-4---6---------------------------2~~~~~~~~~---------------------|

Last Chorus
G|---------------------------------------------------------------------|
D|---------------------------------------------------------------------|
A|-----------------------------55-------55-------55-------55-------55--|
D|-4-4-4---4-4-4--4-4-4--4-4-4----0-0-0----0-0-0----0-0-0----0-0-0-----|

G|--------------------------------------------------------------------------|
D|--------------------------------------------------------------------------|
A|-------55-------55-------55-------55-------55-------55-------55-------55--|
D|-4-4-4----4-4-4----4-4-4----4-4-4----0-0-0----0-0-0----0-0-0----0-0-0-----|


G|------------------------------------------------|
D|------------------------------------------------|
A|------------------------------------------------|
D|-6-6-6-xx-6-6-6-xx-6-6-6-6~~~~------------------|

end thats it!
comments
We did not receive enough feedback on this tab! Please rate:
print report bad tab
1 2 3 4 5
2 comments total.
0 reply
Abong wrote on August 11 2006, 10:17 am

This looks exactly the same as a tab i found by a different person ages ago.

it's mostly right, except the 5 on the g string in the mini solo should actually be a 6.

0 reply
FranKLynn wrote on August 25 2007, 08:09 pm

You suck, the chorus is 100% wrong

I want to post or [tab]
guest
You may want to rate the tab now too:
select rating
Please do not post tabs as comments. Select "correction" instead!