Oops, an error
Loading. Please wait.

Take It Away Tab

version 1
version 1

Whole song

Interactive

9,466 views 6 this week
no commentswrite comment
1 2 3 4 5
x 11
add to favorites
launch autoscroll
font size
0
reset
how to read this tab
guitar tuner
×
Best way to learn
"Take It Away"
Autoscroll
slow
fast
+/-
esc
set tempo
stop
Author
Email:snoutman928@yahoo.com
Tuning:drop d
This is the kick ass song by the used. I cant wait for the new album.
intro
e|-3--3--3--3--3--3--3--3--3-------------------------------------------------|
B|-5--5--5--5--5--5--5--5--5-------------------------------------------------|
G|-4--4--4--4--4--4--4--4--4-------------------------------------------------|
D|-2--0--2--------------0--2-------------------------------------------------|
A|-2--0--2--------------0--2-------------------------------------------------|
D|-2--0--2--------------0--2-------------------------------------------------|
Chorus
e|---------------------------------------------------------------------------|
B|-5------8------10------13--------------------------------------------------|
G|-4------7------9-------12--------------------------------------------------|
D|-2(x3)--5(x4)--7(x3)---10(x4)----------------------------------------------|
A|-2------5------7-------10--------------------------------------------------|
D|-2------5------7-------10--------------------------------------------------|
 First Part of Verse
e|-2-3-0-3-2-3-7-3-2-0-3-0-2-3-7---------------------------------------------|
B|-------------0---------------0---------------------------------------------|
G|---------------------------------------------------------------------------|
D|---------------------------------------------------------------------------|
A|---------------------------------------------------------------------------|
D|---------------------------------------------------------------------------|
Second Part of Verse
e|-5-7-5-7-5-7-3--5-7-3--5-7-14----------------------------------------------|
B|---------------------------------------------------------------------------|
G|---------------------------------------------------------------------------|
D|---------------------------------------------------------------------------|
A|---------------------------------------------------------------------------|
D|---------------------------------------------------------------------------|
Bridge (brothers and sisters are right here with you......)
e|-3-------------------------------------------------------------------------|
B|-5-------------------------------------------------------------------------|
G|-4-------------------------------------------------------------------------|
D|-2(listen to the song to figure out how many times to hit this chord)------|
A|-2-------------------------------------------------------------------------|
D|-2-------------------------------------------------------------------------|
Part After Bridge
e|---------------------------------------------------------------------------|
B|---------------------------------------------------------------------------|
G|---------------------------------------------------------------------------|
D|---------------------------------------------------------------------------|
A|---------------0-0-0-3-3-3-3(x5)-------------------------------------------|
D|-2-2-2-4-4-4-4-------------------------------------------------------------|
Thats it. If you have any questions or comments either Email me or put them in the
comment box. ENJOY!!!!
Suggest correction
comments
print report bad tab
guest
You may want to rate the tab now too:
select rating
Wanna post a correction for this tab? Suggest correction