Oops, an error
Loading. Please wait.

Take It Away Bass Tab

version 3
version 3

Whole song

Interactive

1,418 views 1 this week
1 commentread comment
1 2 3 4 5
accurate
x 4
add to favorites
launch autoscroll
font size
0
reset
guitar tuner
Tab Pro tools
  • play this tab
  • loop segment
  • change instrument
  • show fretboard
  • metronome
×
Best way to learn
"Take It Away"
Autoscroll
slow
fast
+/-
esc
set tempo
stop
Contributor
Difficulty
intermediate
The Used
Take It Away
Bass Tab
Stufin135 (Hellbassist1)

Intro             
G||--------|| x4
D||--------|| x4
A||--------|| x4
D||--14/0--|| x4
   
G||----------------|--------------------|| x3
D||----------------|--------------------|| x3
A||----------------|--------------------|| x3
D||-2-2-2-5--5-5-5-|-7-7-7-10--10-10-10-|| x3

G||----------------|-----------------||
D||----------------|-----------------||
A||----------------|---8-7-0-3-0-3-5-||
D||-2-2-2-5--5-5-5-|-7---------------||

Verse 1
G||----------|----------|----------|----------|----------|----------|| x2
D||-2--2---0-|-2--2---2-|----------|----------|-2--2---0-|-2--2---2-|| x2
A||----------|----------|-3--3---0-|-3--3---3-|----------|----------|| x2
D||----------|----------|----------|----------|----------|----------|| x2

   
G||-----------------|------------------||
D||-----------------|-----0-2-4-5-4-0--||
A||-3-3-3-3-3-3-3-3-|-3-3--------------||
D||-----------------|------------------||

G||-----------------|------------------||
D||-----------------|------------------||
A||-3-3-3-3-3-3-3-3-|-3~---------------||
D||-----------------|------------------||

Chorus
G||----------------|--------------------|| x4
D||----------------|--------------------|| x4
A||----------------|--------------------|| x4
D||-2-2-2-5--5-5-5-|-7-7-7-10--10-10-10-|| x4

G||-----||
D||-----||
A||-3~~-||
D||-----||

Verse 2
G||----------|----------|----------|----------|----------|----------||
D||-2--2---0-|-2--2---2-|----------|----------|-2--2---0-|-2--2---2-||
A||----------|----------|-3--3---0-|-3--3---3-|----------|----------||
D||----------|----------|----------|----------|----------|----------||
 
G||-----------------||
D||-2-2-2-2-2-2-2-2-||
A||-----------------||
D||-----------------||
 
G||-----------------|-----------------||
D||-2-2-2-2-2-2-2-2-|-----------------||
A||-----------------|-3-3-3-3-3-3-3-3-||
D||-----------------|-----------------||
  
G||-----------------|-----------------||
D||-----------------|-----------------||
A||-3-3-3-3-3-3-3-3-|-5-5-5-5-5-5-5-5-||
D||-----------------|-----------------||

G||-----------------|-----------------||
D||-----------------|-----------------||
A||-5-5-5-5-5-5-5-5-|-7-7-7-7-7-7-7-7-||
D||-----------------|-----------------||
  
G||-----------------|-----------------||
D||-----------------|-----------------||
A||-7-7-7-7-7-7-7-7-|-3-3-3-3-3-3-3-3-||
D||-----------------|-----------------||
    
G||-----------------|-----------------|----||
D||-----0-2-4-5-4-0-|-----------------|----||
A||-3-3-------------|-3-3-3-3-3-3-3-3-|-3~-||
D||-----------------|-----------------|----||

Chorus
G||----------------|--------------------|| x7
D||----------------|--------------------|| x7
A||----------------|--------------------|| x7
D||-2-2-2-5--5-5-5-|-7-7-7-10--10-10-10-|| x7
  
Bridge
G||-------------|-------------|| x4
D||-2~--2~--2~--|-2~--2~--2~--|| x4
A||-------------|-------------|| x4
D||-------------|-------------|| x4
  
G||-----------------|-----------------||
D||-2-2-2-2-2-2-2-2-|-2-2-2-2-2-2-2-2-||
A||-----------------|-----------------||
D||-----------------|-----------------||
  
G||-0-0-0-0-0-0-0-0-|-0-0-0-0-0-0-0-0-||
D||-----------------|-----------------||
A||-----------------|-----------------||
D||-----------------|-----------------||

G||-----------------|-----------------||
D||-2-2-2-2-2-2-2-2-|-2-2-2-2-2-2-2-2-||
A||-----------------|-----------------||
D||-----------------|-----------------||
 
G||-5-5-5-5-5-5-5-5-|-5-5-5-5-5-5-5-5-||
D||-----------------|-----------------||
A||-----------------|-----------------||
D||-----------------|-----------------||

G||-----------------|-----------------||
D||-2-2-2-2-2-2-2-2-|-2-2-2-2-2-2-2-2-||
A||-----------------|-----------------||
D||-----------------|-----------------||
  
G||-0-0-0-0-0-0-0-0-|-0-0-0-0-0-0-0-0-||
D||-----------------|-----------------||
A||-----------------|-----------------||
D||-----------------|-----------------||

G||-----------------|-----------------||
D||-2-2-2-2-2-2-2-2-|-2-2-2-2-2-2-2-2-||
A||-----------------|-----------------||
D||-----------------|-----------------||
 
G||-5-5-5-5-5-5-5-5-|-5-5-5-5-5~-5~-||
D||-----------------|---------------||
A||-----------------|---------------||
D||-----------------|---------------||

G||------||
D||------||
A||------||
D||-10/0-||

G||----------------|--------------------|| x3
D||----------------|--------------------|| x3
A||----------------|--------------------|| x3
D||-2-2-2-5--5-5-5-|-7-7-7-10--10-10-10-|| x3

G||----------------|----------------------||
D||----------------|----------------------||
A||----------------|----------------------||
D||-2-2-2-5--5-5-5-|-7-7-7-10--10-10-10~~~||

Chorus
G||----------------|--------------------|| x3
D||----------------|--------------------|| x3
A||----------------|--------------------|| x3
D||-2-2-2-5--5-5-5-|-7-7-7-10--10-10-10-|| x3
  
G||-----------------------|-----------------------||
D||-----------------------|-----------------------||
A||-----------------------|-----------------------||
D||-14-14-14-12--12-12-12-|-11-11-11-10--10-10-10-||

G||----------------|--------------------|| x2
D||----------------|--------------------|| x2
A||----------------|--------------------|| x2
D||-2-2-2-5--5-5-5-|-7-7-7-10--10-10-10-|| x2
  
G||-----------------------|-----------------------||
D||-----------------------|-----------------------||
A||-----------------------|-----------------------||
D||-14-14-14-12--12-12-12-|-11-11-11-10--10-10-10-||

G||----------------|--------------------||
D||----------------|--------------------||
A||----------------|--------------------||
D||-2-2-2-5--5-5-5-|-7-7-7-10--10-10-10-||

Outro
G||--------|| x4
D||--------|| x4
A||--------|| x4
D||--14/0--|| x4

comments
print report bad tab
1 comment total.
+1 reply
SAS bassist wrote on March 27 2008, 07:40 am

lol its funny because you are saying how your tab is better than the other two, when you have missed out bits when Bert says "Take My Hand"
lol just for future reference mate, make sure you have it perfect before criticising other peoples attempts at it ;)

I want to post or [tab]
guest
You may want to rate the tab now too:
select rating
Please do not post tabs as comments. Select "correction" instead!