Oops, an error
Loading. Please wait.

Take It Away Bass Tab

version 4
version 4

Whole song

Interactive

542 views 3 this week
no commentswrite comment
1 2 3 4 5
worth learning
x 1
add to favorites
launch autoscroll
font size
0
reset
guitar tuner
Tab Pro tools
  • play this tab
  • loop segment
  • change instrument
  • show fretboard
  • metronome
Autoscroll
slow
fast
+/-
esc
set tempo
stop
Contributor
Difficulty
Tuning
novice
D A D G B E
----------------------------------------------------------------------------
			     Take It Away - The Used
----------------------------------------------------------------------------

Tabbed By : Jammyrat
e-mail: jammy-rat@hotmail.co.uk

Tuning: DADG

Intro
G|-----------------------|
D|-----------------------|
A|-----------------------|
D|-2~---2~---2~---2~-----|

G|-------------------------------------------------------------------------|
D|-------------------------------------------------------------------------|
A|----------0-0-3-33----------0-0-3-33----------0-0-3-33-----------8703035-|
D|-2-2-5-55----------2-2-5-55----------2-2-5-55-----------2-2-5-55---------|

Verse x2
G|-------------------------------------------------------------------------|
D|-2-2--2-2--------------0-0--0-0---2-2--x-x-x-5-3p2-----------------------|
A|-----------3-3-0h3-3-----------------------------------------------------|
D|-------------------------------------------------------------------------|

Bridge
G|-------------------------------------------------------------------------|
D|-----0-2-4-5-2-0---------------------------------------------------------|
A|-3~--------------3~------------------------------------------------------|
D|-------------------------------------------------------------------------|

Chorus 
G|-------------------------------------------------------------------------|
D|-------------------------------------------------------------------------|
A|----------0-0-3-33----------0-0-3-33----------0-0-3-33-----------8703035-|
D|-2-2-5-55----------2-2-5-55----------2-2-5-55-----------2-2-5-55---------|

Verse 
G|-------------------------------------------------------------------------|
D|-2-2--2-2--------------0-0--0-0---2-2--x-x-x-5-3p2-----------------------|
A|-----------3-3-0h3-3-----------------------------------------------------|
D|-------------------------------------------------------------------------|

G|-------------------------------------------------------------------------|
D|-2222222222222222----------------0000000000000000-2222222222222222-------|
A|-----------------3333333333333333----------------------------------------|
D|-------------------------------------------------------------------------|

Bridge
G|-------------------------------------------------------------------------|
D|-----0-2-4-5-2-0---------------------------------------------------------|
A|-3~--------------3~------------------------------------------------------|
D|-------------------------------------------------------------------------|

Chorus 
G|-------------------------------------------------------------------------|
D|-------------------------------------------------------------------------|
A|----------0-0-3-33----------0-0-3-33----------0-0-3-33-------------------|
D|-2-2-5-55----------2-2-5-55----------2-2-5-55-----------14-14-12--12-12--|

G|-------------------------------------------------------------------------|
D|-------------------------------------------------------------------------|
A|-------------------------------------------------------------------------|
D|-11-11-10--10-10---------------------------------------------------------|

G|-------------------------------------------------------------------------|
D|-------------------------------------------------------------------------|
A|----------0-0-3-33----------0-0-3-33----------0-0-3-33-----------8703035-|
D|-2-2-5-55----------2-2-5-55----------2-2-5-55-----------2-2-5-55---------|

Bridge Part 1
G|-------------------------------------------------------------------------|
D|-------------------------------------------------------------------------|
A|-------------------------------------------------------------------------|
D|-2-2-2-222-2-2-2-222-2-2-2-222-2-2-2-222---------------------------------|

Bridge Part 2 x2
G|-------------------------------------------------------------------------|
D|-------------------------------------------------------------------------|
A|-------------------------------------------------10-10-10-10-10-10-10-10-|
D|-14-14-14-14-14-14-14-14-14-14-14-14-14-14-14-14-------------------------|

G|-------------------------------------------------------------------------|
D|-------------------------------------------------------------------------|
A|-10-10-10-10-10-10-10-10-12-12-12-12-12-12-12-12-12-12-12-12-12-12-12-12-|
D|-------------------------------------------------------------------------|

G|-------------------------------------------------------------------------|
D|-------------------------------------------------------------------------|
A|-15-15-15-15-15-15-15-15-15-15-15-15-15-15-15-15-------------------------|
D|-------------------------------------------------------------------------|

Bridge Part 3
G|-------------------------------------------------------------------------|
D|-------------------------------------------------------------------------|
A|------0-33------0-33------0-33------0-33------0-33------0-3--------------|
D|-2-55------2-55------2-55------2-55------2-55------2-55------------------|

Chorus 
G|-------------------------------------------------------------------------|
D|-------------------------------------------------------------------------|
A|----------0-0-3-33----------0-0-3-33----------0-0-3-33-------------------|
D|-2-2-5-55----------2-2-5-55----------2-2-5-55-----------14-14-12--12-12--|

G|-------------------------------------------------------------------------|
D|-------------------------------------------------------------------------|
A|-------------------------------------------------------------------------|
D|-11-11-10--10-10---------------------------------------------------------|

Chorus 
G|-------------------------------------------------------------------------|
D|-------------------------------------------------------------------------|
A|----------0-0-3-33----------0-0-3-33-------------------------------------|
D|-2-2-5-55----------2-2-5-55----------14-14-12--12-12-11-11-10--10-10-----|

G|-------------------------------------------------------------------------|
D|-------------------------------------------------------------------------|
A|-----------------8703035-------------------------------------------------|
D|-14-14-12--12-12---------------------------------------------------------|

Outro
G|--------------------------------------------|
D|--------------------------------------------|
A|--------------------------------------------|
D|-2~---2~---2-2-2-2-22-2-2-2-2-22-2~---------|




| /  slide up
| \  slide down
| h  hammer-on
| p  pull-off
| ~  vibrato
| +  harmonic
| x  Mute note
===============================================================================
comments
We did not receive enough feedback on this tab! Please rate:
print report bad tab
1 2 3 4 5
I want to post or [tab]
guest
You may want to rate the tab now too:
select rating
Please do not post tabs as comments. Select "correction" instead!