Oops, an error
Loading. Please wait.

Take It Away Tab

version 4
version 4

Whole song

Interactive

2,568 views 1 this week
1 commentread comment
1 2 3 4 5
accurate
x 3
add to favorites
launch autoscroll
font size
0
reset
how to read this tab
guitar tuner
Tab Pro tools
  • play this tab
  • loop segment
  • change instrument
  • show fretboard
  • metronome
×
Best way to learn
"Take It Away"
Autoscroll
slow
fast
+/-
esc
set tempo
stop
Difficulty
Tuning
novice
D A D G B E
The Used
Take it Away

Intro:
GUITAR 1
e|-----------0--0--0--0--0--0--0--0--0--0--0--0--0--0--0--0--0--0--|
B|-----------8--8--8--8--8--8--8--8--8--8--8--8--8--8--8--8--8--8--|
G|----------11-11-11-11-11-11-11-11-11-11-11-11-11-11-11-11-11-11--|
D|-----------------------------------------------------------------|
A|-----------------------------------------------------------------|
E|-----------------------------------------------------------------|

GUITAR 2                                                "GET DOWN!"    
e|-----------------------------------------------------------------|
B|-----------------------------------------------------------------|
G|-----------9\\---------------------------------------------------|
D|-----------9\\--------x-9\\------xxx-9\\--------x-9\\------------|
A|-----------7\\--------x-7\\------xxx-7\\--------x-7\\------------|
E|-----------0\\--------x-0\\------xxx-0\\--------x-0\\------------|

Then Play this 4x
e|-----------------------------------------------------------------|
B|-----------------------------------------------------------------|
G|-----------------------------------------------------------------|
D|-2-2--5--5-5-5----7-7----10--10-10-10----------------------------|
A|-2-2--5--5-5-5----7-7----10--10-10-10----------------------------|
E|-2-2--5--5-5-5----7-7----10--10-10-10----------------------------|

Verse 1:
"I'm lying to myself..."
e|--0--------------0--------------0--------------0-----------------|
B|--8--------------7-------------10--------------8-----------------|
G|-11-------------11-------------11-------------11-----------------|
D|-----------------------------------------------------------------|
A|-----------------------------------------------------------------|
E|-----------------------------------------------------------------|

"I must forgive myself..."
e|-5--7--5--7--5--3---5--7--0----5--3--0--7---5--------------|
B|-----------------------------------------------8-----------|
G|-----------------------------------------------------------|
D|-----------------------------------------------------------|
A|-----------------------------------------------------------|
E|-----------------------------------------------------------|

Pre-chorus:
"Don't! Make! It! Look! so, Pretty burning!"
e|-----0---0---0---0--0--0--0---0----0--0--0--0--0---0---0---------|
B|-----8---8---8---8--8--8--8---8----8--8--8--8--8---8---8\\-------|
G|----11--11--11--11-11-11-11--11---11-11-11-11-11--11--11\\-------|
D|-----------------------------------------------------------------|
A|-----------------------------------------------------------------|
E|-----------------------------------------------------------------|

Chorus:Play 4x
"Burn the sun, burn the light!" 
e|-----------------------------------------------------------------|
B|-----------------------------------------------------------------|
G|-----------------------------------------------------------------|
D|-2-2--5--5-5-5----7-7----10--10-10-10----------------------------|
A|-2-2--5--5-5-5----7-7----10--10-10-10----------------------------|
E|-2-2--5--5-5-5----7-7----10--10-10-10----------------------------|

Verse 2:
                    "I must've caught something..."
e|--0--0--0--0--0----------0----------------------------------0----|
B|--8--8--8--8--8-------8---------8---0---7h8-5--7--0------8-------|
G|-11-11-11-11-11---11--------11----------------------/11----------|
D|-----------------------------------------------------------------|
A|-----------------------------------------------------------------|
E|-----------------------------------------------------------------|

"I guess i'm bi**ing..."
e|--0---0--0---0--0--0--0--0---0---0-0--0--0--0--------------------|
B|-10--12-10--12-10--8-10--5--10--12-5--0-13-12--------------------|
G|-----------------------------------------------------------------|
D|-----------------------------------------------------------------|
A|-----------------------------------------------------------------|
E|-----------------------------------------------------------------|

Pre-chorus:
"Don't! Make! It! Look! so, Pretty burning!"
e|-----0---0---0---0--0--0--0---0----0--0--0--0--0---0---0---------|
B|-----8---8---8---8--8--8--8---8----8--8--8--8--8---8---8\\-------|
G|----11--11--11--11-11-11-11--11---11-11-11-11-11--11--11\\-------|
D|-----------------------------------------------------------------|
A|-----------------------------------------------------------------|
E|-----------------------------------------------------------------|

Chorus:Play 8x
"Burn the sun, burn the light!" 
e|-----------------------------------------------------------------|
B|-----------------------------------------------------------------|
G|-----------------------------------------------------------------|
D|-2-2--5--5-5-5----7-7----10--10-10-10----------------------------|
A|-2-2--5--5-5-5----7-7----10--10-10-10----------------------------|
E|-2-2--5--5-5-5----7-7----10--10-10-10----------------------------|

Interlude: Play 2x
"Brothers and sisters!"
e|-0-0--0-0--0-0--0-0--0---0----0-0--0-0--0-0--0-0--0---0----------|
B|-8-8--8-8--8-8--8-8--8---8----8-8--8-8--8-8--8-8--8---8----------|
G|-9-9--9-9--9-9--9-9--9---9----9-9--9-9--9-9--9-9--9---9----------|
D|-----------------------------------------------------------------|
A|-----------------------------------------------------------------|
E|-----------------------------------------------------------------|

"take my hand...take my hand!..."
e|-0-0--0-0--0-0--0-0--0---0----0--0---0--0---0--0---0--0---0----0-|
B|-8-8--8-8--8-8--8-8--8---8----8--8---8--8---8--8---8--8---8----8-|
G|-9-9--9-9--9-9--9-9--9---9---11-11--11-11--11-11--11-11--11---11-|
D|-----------------------------------------------------------------|
A|-----------------------------------------------------------------|
E|-----------------------------------------------------------------|

"Take my hand!... Take my hand!"
e|--0--0---0--0---0--0---0--0---0----0-----0--0---0--0---0--0---0--0---0----0--|
B|--8--8---8--8---8--8---8--8---8----8----10-10--10-10--10-10--10-10--10---10--|
G|-12-12--12-12--12-12--12-12--12---12----12-12--12-12--12-12--12-12--12---12--|
D|-----------------------------------------------------------------------------|
A|-----------------------------------------------------------------------------|
E|-----------------------------------------------------------------------------|

The play this 2x
"Take my hand!! take take take my hand!"
e|-0--0-10--0-0-10-10--0-10--0---0--0-10--0-0-10-10--0-10--0-------------------|
B|-8--8--8--8-8--8--8--8--8--8---8--8--8--8-8--8--8--8--8--8-------------------|
G|-9--9--9--9-9--9--9--9--9--9---9--9--9--9-9--9--9--9--9--9-------------------|
D|-----------------------------------------------------------------------------|
A|-----------------------------------------------------------------------------|
E|-----------------------------------------------------------------------------|

(everything shuts up except voice from behind and drums etc.) 
"Take my heart! take my mind!..."

Chorus:Play 3x
"Burn the sun, burn the light! Take take take take take take it away
Take my hand!Take my Life!" 
e|-----------------------------------------------------------------|
B|-----------------------------------------------------------------|
G|-----------------------------------------------------------------|
D|-2-2--5--5-5-5----7-7----10--10-10-10----------------------------|
A|-2-2--5--5-5-5----7-7----10--10-10-10----------------------------|
E|-2-2--5--5-5-5----7-7----10--10-10-10----------------------------|

"Take take take take take take it away!"
e|-----------------------------------------------------------------|
B|-----------------------------------------------------------------|
G|-----------------------------------------------------------------|
D|-14-14-14-14--12-12-12-12--11-11-11-11--10-10--------------------|
A|-14-14-14-14--12-12-12-12--11-11-11-11--10-10--------------------|
E|-14-14-14-14--12-12-12-12--11-11-11-11--10-10--------------------|

Play This 2x
"Burn the sun! Burn the light! Take take take take take take it away"
e|-----------------------------------------------------------------|
B|-----------------------------------------------------------------|
G|-----------------------------------------------------------------|
D|-2-2--5--5-5-5----7-7----10--10-10-10----------------------------|
A|-2-2--5--5-5-5----7-7----10--10-10-10----------------------------|
E|-2-2--5--5-5-5----7-7----10--10-10-10----------------------------|

Play 2x
"Take my hand! take my life!!...."
e|-----------------------------------------------------------------|
B|-----------------------------------------------------------------|
G|-----------------------------------------------------------------|
D|-14-14-14-14--12-12-12-12--11-11-11-11--10-10-10-10--------------|
A|-14-14-14-14--12-12-12-12--11-11-11-11--10-10-10-10--------------|
E|-14-14-14-14--12-12-12-12--11-11-11-11--10-10-10-10--------------|

(pickslide)

Outro:
GUITAR 1
e|-----------0--0--0--0--0--0--0--0--0--0--0--0--0--0--0--0--0--0--|
B|-----------8--8--8--8--8--8--8--8--8--8--8--8--8--8--8--8--8--8--|
G|----------11-11-11-11-11-11-11-11-11-11-11-11-11-11-11-11-11-11--|
D|-----------------------------------------------------------------|
A|-----------------------------------------------------------------|
E|-----------------------------------------------------------------|

GUITAR 2
e|-----------------------------------------------------------------|
B|-----------------------------------------------------------------|
G|-----------------------------------------------------------------|
D|-----------9\\----------9\\------99-9\\--99-99\\--9-99-9\\--9\\--|
A|-----------7\\----------7\\------77-7\\--77-77\\--7-77-7\\--7\\--|
E|-----------0\\----------0\\------00-0\\--00-00\\--0-00-0\\--0\\--|
comments
We did not receive enough feedback on this tab! Please rate:
print report bad tab
1 2 3 4 5
1 comment total.
0 reply
FranKLynn wrote on October 11 2008, 10:41 pm

good job sounds better than the others

I want to post or [tab]
guest
You may want to rate the tab now too:
select rating
Please do not post tabs as comments. Select "correction" instead!