Oops, an error
Loading. Please wait.

Take It Away Bass Tab

version 5
version 5

Whole song

Interactive

2,540 views 3 this week
2 commentsread comments
1 2 3 4 5
excellent!
x 2
add to favorites
launch autoscroll
font size
0
reset
guitar tuner
Tab Pro tools
  • play this tab
  • loop segment
  • change instrument
  • show fretboard
  • metronome
Autoscroll
slow
fast
+/-
esc
set tempo
stop
Contributor
The Used
Take It Away

Dropped C

This is how i play it. The notes are right, but the slides and pull-off and hammer-ons
are what i like to do. This song's fills were a bitch to figure out. Most of the fill 
are
right. This is as close as its gonna get.

F:--------------------------|
C:--------------------------|
G:--------------------------|
C:-4/----x4/----x4/----x4/--|

F:-----------------|   x3
C:-----------0000--|
G:----0000222------|
C:-444-------------|

F:-----------2---------|
C:-------2h4--54542----|
G:----000-----------5--|
C:-444------4----------|


  "I'm lying to myself"
F:-----------------------------------------------------------------------|
C:------------------0--0-0---0--0-0--2--2-2--2--2-2--4--4-4-4-4-4---2h4--|
G:--------------------------2-------2---------------2------------2h4-----|
C:-4--4-4--24--4-4-2-----------------------------------------------------|

F:----------------------------------------------------------------2--------9-11-13-14-13-11-9--|
C:------------------0--0-0---0--0-0------------------444444442h444-444-------------------------|
G:--------------------------2-------2----------------------------------------------------------|
C:-4--4-4--24--4-4-2-----------------2--2-2--2--2-2---------------------0~~--------------------|


  "Burn the sun, burn the light"
F:-----------------|
C:-----------0000--|
G:----0000222------|
C:-444-------------|

F:------------------|
C:-----------00-----|
G:----0000222--54---|
C:-444-----------5--|

F:-----------------|
C:-----------0000--|
G:----0000222------|
C:-444-------------|

F:-----------------777\--|
C:-------2h4--5h4h5------|
G:----000----------------|
C:-444------4------------|

F:----------------------|
C:-------0h2p0h4p0h2p0--|
G:----------------------|
C:-0-0-0----------------|


  "I must have caught something"
F:------------------------------------------------------------------------|
C:------------------0--0-0---0--0-0--2--2-2--2--2-2--4--4-4--24444----4---|
G:--------------------------2-------2-------2-------2-------4------4h5-4--|
C:-4--4-4--24--4-4-2------------------------------------------------------|

F:---------------------------------------------------------------2---------911131413119--|
C:-----------------0000000000000000----------------4444444442h4p2-4p2--------------------|
G:-------------------------------------------------------------------4-------------------|
C:-4444444444444444----------------2222222222222222-------------------0~~----------------|


  "Burn the sun, burn the light"
F:-----------------|   x3
C:-----------0000--|
G:----0000222------|
C:-444-------------|

F:------------767------|
C:-------2h4-----7--6--|
G:----000---------67---|
C:-444------4----------|


F:-----------------|   x3
C:-----------0000--|
G:----0000222------|
C:-444-------------|

F:------------767------|
C:-------2h4-----7--6--|
G:----000---------67---|
C:-444------4----------|


  "Brothers and sisters I'm right here with you"
F:--------------------------------2--|   x2
C:-------------------------2h4-4p2---|
G:-----------------------------------|
C:-4--4--4--4--4-4-4--4--4----4------|


  "Take my hand"
F:------------------------------------------------------------------------------------------------|
C:-44444444444444447777777777777777999999999999999912-12-12-12-12-12-12-12-11-12-12-11-12-12-11-12|
G:------------------------------------------------------------------------------------------------|
C:------------------------------------------------------------------------------------------------|

F:--------------------------------------------------------------------|
C:-444444444444444477777777777777779999999999999999-------------------|
G:--------------------------------------------------------------------|
C:-------------------------------------------------0000000000000-12/--|


  "Burn the sun, burn the light"
F:-----------------|   x3
C:-----------0000--|
G:----0000222------|
C:-444-------------|

F:-11-11-11-999888777--|
C:---------------------|
G:---------------------|
C:---------------------|

F:-----------------------|   x2
C:---4p0--2h4--4p0004p0--|
G:------00---22----------|
C:-44--------------------|

F:-------------------|
C:---7---7---7---7---|
G:-99-977-766-655-5--|
C:-------------------|

F:------------12p11-7h9-11---|
C:---4p0--2h4------9------9--|
G:------00---2---------------|
C:-44------------------------|

F:--------------------------------------------------|
C:--------------------------------------------------|
G:--------------------------------------------------|
C:-4/----x4/----x4/-4/-4/-4/-4/4/4-4/-4/-4/-4/4/4/--|


why do people think this is not played in C? if you really listen to it where the song says
"Don't make it look so pretty burning" there is a ringing note held and the little fill played
at the same time. the note ringing is a low C!!!

by the way, Jeff Howard is fuckin badass!!!
comments
We did not receive enough feedback on this tab! Please rate:
print report bad tab
1 2 3 4 5
2 comments total.
0 reply
Baz the Bassman wrote on May 6 2009, 12:17 pm

nice tab bro but who the hell drops all four strings down on a bass. jeff would've played it on a 5 string!!! dude, dont complicate things!

0 reply
ADL20 wrote on May 6 2009, 01:09 pm

i love dropped C tuning!!! yeah he would of but not all of us have a 5 string. and just look at the music video, 4 string!

I want to post or [tab]
guest
You may want to rate the tab now too:
select rating
Please do not post tabs as comments. Select "correction" instead!