Oops, an error
Loading. Please wait.

The Taste Of Ink Tab

version 10
967 views 1 this week
no commentswrite comment
1 2 3 4 5
please rate
add to favorites
launch autoscroll
font size
0
reset
how to read this tab
guitar tuner
Tab Pro tools
  • play this tab
  • loop segment
  • change instrument
  • show fretboard
  • metronome
Autoscroll
slow
fast
+/-
esc
set tempo
stop
Contributor
                        The Used - The Taste Of Ink

     Correct version of the The Taste Of Ink - However their are 
     2 guitars budded over.

Key: / slide up
     x mute
     D downstroke
     U upstroke

Drop D Tunning

Guitar 1 - Quinn Allman

Intro       Clean X2 Distortion X2

    D D D  U D DU  D  D  D U D  DU D D D U D DU D D D U D U
E)------------------------------------------------------------------|
B)------------------------------------------------------------------|
G)--7-7-----------------------------------------7-7-7-7-7-7---------|
D)--7-7-10-x-9-99/12-12-10-x-9--00-7-7-5-x-5-00-101010101010--------|
A)--7-7-7--x-7-77/10-10-10-x-10-00-5-5-5-x-5-00-0-0-0-0-0-0---------|
D)--7-7-7--x-7-77/10-10-10-x-10-00-5-5-5-x-5-00-0-0-0-0-0-0---------|

Pre-Chorus  Clean  X1
E)------------------------------------------------------------------|
B)------------------------------------------------------------------|
G)--141414141414141414----------------------------------------------|
D)--121212121212121212----------------------------------------------|
A)--101010101010101010....----strum --------------------------------|
D)------------------------------------------------------------------|

Chorus      Distortion X2
E)------------------------------------------don't mute on 2nd time--|
B)------------------------------------------------------------------|
G)--77777777777-77777777777-999999999-9-11-1212121212---------------|
D)--55555555555-00000000000-777777777-7-9--1010101010-xxxxxx--------|
A)--55555555555-00000000000-777777777-7-9--1010101010-xxxxxx--------|
D)--55555555555-00000000000-777777777-7-9--1010101010-xxxxxx--------|

Verse       Clean X1    Distortion X1

  D D D  U D DU  D  D  D U D  DU D D D U D DU D D D U D U
E)------------------------------------------------------------------|
B)------------------------------------------------------------------|
G)--7-7-----------------------------------------7-7-7-7-7-7---------|
D)--7-7-10-x-9-99/12-12-10-x-9--00-7-7-5-x-5-00-101010101010--------|
A)--7-7-7--x-7-77/10-10-10-x-10-00-5-5-5-x-5-00-0-0-0-0-0-0---------|
D)--7-7-7--x-7-77/10-10-10-x-10-00-5-5-5-x-5-00-0-0-0-0-0-0---------|
   
Verse       Distortion
E)------------------------------------------------------------------|
B)------------------------------------------------------------------|
G)--14141414141414141111111111111111--------------------------------|
D)--12121212121212121212121212121212--------------------------------|
A)--10101010101010101010101010101010--------------------------------|
D)------------------------------------------------------------------|

Chorus      Distortion X2
E)------------------------------------------------------------------|
B)------------------------------------------------------------------|
G)--77777777777-77777777777-999999999-9-11-1212121212---------------|
D)--55555555555-00000000000-777777777-7-9--1010101010-xxxxxx--------|
A)--55555555555-00000000000-777777777-7-9--1010101010-xxxxxx--------|
D)--55555555555-00000000000-777777777-7-9--1010101010-xxxxxx--------|

Chorus continued
E)-------------------------------------------------------------------------|
B)----------------------------------------------------------13131313131313-|
G)--77777777777-77777777777-999999999-9-11-1212121212121212-12121212121212-|
D)--55555555555-00000000000-777777777-7-9--1010101010101010-10101010101010-|
A)--55555555555-00000000000-777777777-7-9--1010101010101010----------------|
D)--55555555555-00000000000-777777777-7-9--1010101010101010----------------|

Bridge part 1     Light Distortion X2
    D   D  D U  D
E)-------------------------------------------------------------------|
B)-------------------------------------------------------------------|
G)--7---7--7-7--7--0------------0--------------------0---------------|
D)--9---9--9-9--9------------9------9------------12-----12---12------|
A)--10--10-1010-9----9---12-----------12/15--15------------15--15----|
D)--0---0--0-0--0----------------------------------------------------|

Bridge part 2    Light Distortion X 1
E)-------------------|------------------|----------------------------|
B)-------------------|------------------|----------------------------|
G)------7----7------7|-----7----7-----7-|------12-----12----12/------|
D)----9---9----9-----|---10--10---10----|----9----9-----9------------|
A)--10-----10----10--|-9-------9----9---|-12--------12----12---------|
D)-------------------|------------------|----------------------------|

Bridge part 2 continued
E)------------------------------------------------------------------|
B)------------------------------------------------------------------|
G)--17171717171717171717--------------------------------------------|
D)--17171717171717171717--------------------------------------------|
A)--15151515151515151515--------------------------------------------|
D)------------------------------------------------------------------|

Verse    Distortion X2  
  
D D D  U D DU  D  D  D U D  DU D D D U D DU D D D U D U
E)---------------------------------------------|--Don't-play this on|
B)---------------------------------------------|----the 2nd time----|
G)--7-7-----------------------------------------7-7-7-7-7-7---------|
D)--7-7-10-x-9-99/12-12-10-x-9--00-7-7-5-x-5-00-101010101010--------|
A)--7-7-7--x-7-77/10-10-10-x-10-00-5-5-5-x-5-00-0-0-0-0-0-0---------|
D)--7-7-7--x-7-77/10-10-10-x-10-00-5-5-5-x-5-00-0-0-0-0-0-0---------|
Chorus   Distortion X2
E)------------------------------------------------------------------|
B)------------------------------------------------------------------|
G)--77777777777-77777777777-999999999-9-11-1212121212---------------|
D)--55555555555-00000000000-777777777-7-9--1010101010-xxxxxx--------|
A)--55555555555-00000000000-777777777-7-9--1010101010-xxxxxx--------|
D)--55555555555-00000000000-777777777-7-9--1010101010-xxxxxx--------|

Chorus continued
E)-------------------------------------------------------------------------|
B)----------------------------------------------------------13131313131313-|
G)--77777777777-77777777777-999999999-9-11-1212121212121212-12121212121212-|
D)--55555555555-00000000000-777777777-7-9--1010101010101010-10101010101010-|
A)--55555555555-00000000000-777777777-7-9--1010101010101010----------------|
D)--55555555555-00000000000-777777777-7-9--1010101010101010----------------|

Chorus continued again....slightly
E)------------------------------------------------------------------|
B)--131313-131313131313---------------------------------------------|
G)--121212-121212121212---------------------------------------------|
D)--101010-101010101010---------------------------------------------|
A)------------------------------------------------------------------|
D)------------------------------------------------------------------|

Outro       Slight Distortion X3
  
  D D D  U D DU  D  D  D U D  DU D D D U D DU D D D U D U
E)------------------------------------------------------------------|
B)------------------------------------------------------------------|
G)--7-7-----------------------------------------7-7-7-7-7-7---------|
D)--7-7-10-x-9-99/12-12-10-x-9--00-7-7-5-x-5-00-101010101010--------|
A)--7-7-7--x-7-77/10-10-10-x-10-00-5-5-5-x-5-00-0-0-0-0-0-0---------|
D)--7-7-7--x-7-77/10-10-10-x-10-00-5-5-5-x-5-00-0-0-0-0-0-0---------|



Guitar 2 - Greg Bester, the early days LIVE

Intro/Verse  Clean X4
    D  D  D  D  D  D  D  D  D  D  D  D  D  D  D  D  D  D  D
E)------------------------------------------------------------------|
B)--12-12-12-12-12-12-12-12-12-12-12-12-12-12-12-12-----------------|
G)--12-12-12-12-12-12-12-12-12-12-12-12-12-12-12-12-11-11-11--------|
D)--9--9--9--9--10-10-10-10-9--9--9--9--10-10-10-10-x--x--x---------|
A)--------------------------------------------------9--9--9---------|
D)------------------------------------------------------------------|

Chorus       Slight Distortion X2
E)------------------------------------------------------------------|
B)--88888888888-77777777777-101010101010101010-1313131313-----------|
G)--xxxxxxxxxxx-xxxxxxxxxxx-x-x-x-x-x-x-x-x-x--x-x-x-x-x------------|
D)--55555555555-44444444444-7-7-7-7-7-7-7-7-7--1010101010-----------|
A)------------------------------------------------------------------|
D)------------------------------------------------------------------|

Verse        Clean X1
    D  D  D  D  D  D  D  D  D  D  D  D  D  D  D  D  D  D  D
E)------------------------------------------------------------------|
B)--12-12-12-12-12-12-12-12-12-12-12-12-12-12-12-12-----------------|
G)--12-12-12-12-12-12-12-12-12-12-12-12-12-12-12-12-11-11-11--------|
D)--9--9--9--9--10-10-10-10-9--9--9--9--10-10-10-10-x--x--x---------|
A)--------------------------------------------------9--9--9---------|
D)------------------------------------------------------------------|

Verse        Slight Distortion
E)-----------------------------------------------------------------------|
B)-----------------------------------------------------------------------|
G)----11-12-9---11-12-12---11-12-12141414141414161616161616--------------|
D)--12--------12---------12--------x-x-x-x-x-x-x-x-x-x-x-x---------------|
A)---------------------------------121212121212141414141414--------------|
D)-----------------------------------------------------------------------|

Chorus       Slight Distortion X2
E)------------------------------------------------------------------|
B)--88888888888-77777777777-101010101010101010-12-1313131313--------|
G)--xxxxxxxxxxx-xxxxxxxxxxx-x-x-x-x-x-x-x-x-x--x--x-x-x-x-x---------|
D)--55555555555-44444444444-7-7-7-7-7-7-7-7-7--9--1010101010--------|
A)------------------------------------------------------------------|
D)------------------------------------------------------------------|

Bridge       Clean 
E)-comes in when Bert sings-----------------------------------------|
B)------------------------------------------------------------------|
G)-12121212121212121111111111111111-11\777777777/1717171717171717---|
D)-x-x-x-x-x-x-x-x-x-x-x-x-x-x-x-x--x--xxxxxxxxx-x-x-x-x-x-x-x-x----|
A)10101010101010109-9-9-9-9-9-9-9--9-\555555555/1515151515151515----|
D)------------------------------------------------------------------|

E)------------------------------------------------------------------|
B)------------------------------------------------------------------|
G)-1212121212121212111111111111111114141414141414141717171717171717-|
D)-x-x-x-x-x-x-x-x-x-x-x-x-x-x-x-x-x-x-x-x-x-x-x-x-x-x-x-x-x-x-x-x--|
A)-10101010101010109-9-9-9-9-9-9-9-12121212121212121515151515151515-|
D)------------------------------------------------------------------|

Verse        Slight Distortion 
    D  D  D  D  D  D  D  D  D  D  D  D  D  D  D  D  D  D  D
E)------------------------------------------------------------------|
B)--12-12-12-12-12-12-12-12-12-12-12-12-12-12-12-12-----------------|
G)--12-12-12-12-12-12-12-12-12-12-12-12-12-12-12-12-11-11-11--------|
D)--9--9--9--9--10-10-10-10-9--9--9--9--10-10-10-10-x--x--x---------|
A)--------------------------------------------------9--9--9---------|
D)------------------------------------------------------------------|

Verse        Slight Distortion
E)-----------------------------------------------------------------------|
B)-----------------------------------------------------------------------|
G)----11-12-9---11-12-12---11-12-12--------------------------------------|
D)--12--------12---------12----------------------------------------------|
A)-----------------------------------------------------------------------|
D)-----------------------------------------------------------------------|

Chorus       Slight Distortion X2
E)------------------------------------------------------------------|
B)--88888888888-77777777777-101010101010101010-12-1313131313--------|
G)--xxxxxxxxxxx-xxxxxxxxxxx-x-x-x-x-x-x-x-x-x--x--x-x-x-x-x---------|
D)--55555555555-44444444444-7-7-7-7-7-7-7-7-7--9--1010101010--------|
A)------------------------------------------------------------------|
D)------------------------------------------------------------------|

Outro        Slight Distortion X2
E)-----------------------------------------------------------------------|
B)-----------------------------------------------------------------------|
G)----11-12-9---11-12-12---11-12-12-12-121212121212121212\\\\\\\---------|
D)--12--------12---------12---------x--x-x-x-x-x-x-x-x-x-----------------|
A)----------------------------------10-101010101010101010\\\\\\\---------|
D)-----------------------------------------------------------------------|

Outro        
E)-----------------------------------------------------------------------|
B)-----------------------9------9----9-10-9------------------------------|
G)----11-12-9---11-12-12-----12---12-------------------------------------|
D)--12--------12---------------------------------------------------------|
A)-----------------------------------------------------------------------|
D)-----------------------------------------------------------------------|
comments
We did not receive enough feedback on this tab! Please rate:
print report bad tab
1 2 3 4 5
I want to post or [tab]
guest
You may want to rate the tab now too:
select rating
Please do not post tabs as comments. Select "correction" instead!