Oops, an error
Loading. Please wait.

The Taste Of Ink Bass Tab

version 2
version 2
986 views 1 this week
2 commentsread comments
1 2 3 4 5
worth learning
x 5
add to favorites
launch autoscroll
font size
0
reset
guitar tuner
Tab Pro tools
  • play this tab
  • loop segment
  • change instrument
  • show fretboard
  • metronome
×
Best way to learn
"The Taste Of Ink"
Autoscroll
slow
fast
+/-
esc
set tempo
stop
"The Taste of Ink" by The Used

Verse 1:3x
G-----------------------------------------
D-----------------------------------------
A----------------3-3-3-33---------5-5-5-55
E-3/12\5-5-5-5-55---------3-3-3-33--------

Chorus:2x
G---------------------------------------------------
D---------------------------------------------------
A----------------3-333-333-333-3-----------5-555-555  (Drum Fill)
E-5-555-555-555-5---------------3-333-333-3--------- 

Verse 2:1x
G-------------------------------------------------------------------------
D-------------------------------------------------------------------------(Drum
A---------3-3-3-33--------5-5-5-55----------------3-3-3-33--------5-5-5-55 Fill)
E-5-5-5-55--------3-3-3-33---------3/12\5-5-5-5-55--------3-3-3-33--------

Chorus 1 2x with "Riff 2" on end

Riff 2: 1x
G-----------
D-----------
A-----------
E-5555555555

Interlude:1x
G---------------------
D---------------------
A-3~3~5~3~----3~3~3~3~
E---------3~5~--------

Chorus 1:2x

Verse 1(without Slide): till end
comments
print report bad tab
2 comments total.
0 reply
someperson wrote on May 20 2007, 02:05 pm

This is by far the best tab on here, but it stil doesn't seem right... Im gonna try it soon. ^^

0 reply
NemX162 wrote on May 24 2013, 05:35 pm

You people can't hear.

I want to post or [tab]
guest
You may want to rate the tab now too:
select rating
Please do not post tabs as comments. Select "correction" instead!