Oops, an error
Loading. Please wait.

The Taste Of Ink Tab

version 2
3,177 views 1 this week
15 commentsread comments
1 2 3 4 5
worth learning
x 17
add to favorites
launch autoscroll
font size
0
reset
how to read this tab
guitar tuner
Tab Pro tools
  • play this tab
  • loop segment
  • change instrument
  • show fretboard
  • metronome
×
Best way to learn
"The Taste Of Ink"
Autoscroll
slow
fast
+/-
esc
set tempo
stop
Artist: The Used
Track: The Taste of Ink
Album:The Used
Tunning:Normal(EADGBe)
Tabed By:Steve

  Verse(light Distortion)
e|------------------------------------------------------
B|------------------------------------------------------
G|------------5-5-5--55------------7-7-7--77------------
D|--7-7-7--77-5-5-5--55-5-5-5--55--7-7-7--77------------
A|--7-7-7--77-3-3-3--33-5-5-5--55--5-5-5--55------------
E|--5-5-5--55-----------3-3-3--33-----------------------


  Chorus(Distortion)
e|------------------------------------------------------
B|------------------------------------------------------
G|------------55555555------------77777777--------------
D|--77777777--55555555--55555555--77777777--------------
A|--77777777--33333333--55555555--55555555--------------
E|--55555555------------33333333------------------------


  Bridge(Clean)
e|------------------------------------------------------
B|------------------------------------------------------
G|-------------- 5--------------7-----------------------
D|------7----- 5---------5----7-------------------------
A|----7------3---------5----5---------------------------
E|--5----------------3----------------------------------


Thats all I have.

Any Corrections are welcome.  This is my first tab.
comments
print report bad tab
15 comments total. Showing first comments.
0 reply
corndawg wrote on December 20 2002, 12:00 am

This is the best taste of ink tab. great job.

0 reply
EmoCatharsis wrote on January 9 2003, 12:00 am

this tab is right except for the chorus, the progression is G-D-A-C

0 reply
eatme wrote on January 11 2003, 12:00 am

Intro/Verse
e----------------------------------
B----------------------------------
G-----------4-4-3-3-------------7-7-7-7-
D-7-7-6-6---4-4-4-4---4-4-3-3---7-7-7-7-
A-7-7-7-7---2-2-2-2---4-4-4-4---5-5-5-5-
E-5-5-5-5-------------2-2-2-2-----------

Chorus
e-------------------
B-------------------
G-----------4/6---7-----
D-7----2----4/6---7-------
A-7----2----2/4---5------- Just strum
E-5----0--------------

I want to post or [tab]
guest
You may want to rate the tab now too:
select rating
Please do not post tabs as comments. Select "correction" instead!