Oops, an error
Loading. Please wait.

The Taste Of Ink Bass Tab

version 6
version 6
3,049 views 1 this week
3 commentsread comments
1 2 3 4 5
accurate
x 4
add to favorites
launch autoscroll
font size
0
reset
guitar tuner
Tab Pro tools
  • play this tab
  • loop segment
  • change instrument
  • show fretboard
  • metronome
Autoscroll
slow
fast
+/-
esc
set tempo
stop
Contributor
Tuning
D A D G B E
The other tabs for this song dont sound quite right, so I am gonna have a go at
it, this is my first tab so please rate.


Intro: (comes in at :10)
G|------------|
D|------------|
A|------------|
D|-3/12\3-----|

G|-------------------------------------------|
D|---------------------------8----------7--7-|
A|-0-0-0-0-00-23-3-3-3-9-9-99-98-5-5-55-55---|
D|-------------------------------------------|

G|-------------------------------------------|
D|---------------777777p5---------7--7-------|
A|-0-0-0-0-00-23---------h7-5-5-55-55--------|
D|-------------------------------------------|

G|-------------------------------------------|
D|-----------------------------8-----77--77--|
A|-0-0-0-0-00-23-3-3-3-3-9-9-99-98-55--55----|
D|-------------------------------------------|

G|-------------------------------------------|
D|-------------------------------------------|
A|-------------------------------------------|
D|-0~-12-12-12-12-12-12-12-12\---------------|

Chorus (:43)

G|--------------------------------------------------------------------|
D|--------------------------------------------------------------------|
A|-----------------5-55-5-55-5-5-55-0-00-0-00-0-0-00-02---------------|
D|-5-55-5-55-5-5-55---------------------------------------------------| 

G|--------------------------------|
D|--------------------------------|       
A|--------------------------------|
D|-0-00-0-00-0-0-00--XXXXXX-------|

G|-------------------------------------------------------------|
D|--------------------------------------------------------5--5-|
A|----------------------------------0-00-0-00-0-0-002-3333-33--|
D|-5-55-5-55-5-5-55-0-00-0-00-0-0-00---------------------------|

Verse( come back at 1:11)

G|--------|
D|--------|
A|--------|
D|-3/12\3-|

G|---------------------------------------------|
D|---------------------------8-------- 77--77--|
A|-0-0-0-0-00-23-3-3-3-9-9-99-98-5-5-55--55----|
D|---------------------------------------------|

G|--------------|
D|--------------|
A|-5-55-555-5-5-|
D|--------------|

Chorus (1:25)

G|--------------------------------------------------------------------|
D|--------------------------------------------------------------------|
A|-----------------5-55-5-55-5-5-55-0-00-0-00-0-0-00-02---------------|
D|-5-55-5-55-5-5-55---------------------------------------------------| 

G|--------------------------------|
D|--------------------------------|       
A|--------------------------------|
D|-0-00-0-00-0-0-00--XXXXXX-------|

G|-------------------------------------------------------------|
D|--------------------------------------------------------5--5-|
A|----------------------------------0-00-0-00-0-0-002-3333-33--|
D|-5-55-5-55-5-5-55-0-00-0-00-0-0-00---------------------------|

G|-----------------------12-|
D|-------12--------12--12---|
A|-/10-10--10101010--10-----|
D|--------------------------|

Break (1:47)

G|-------------------|
D|-9~~-5~~-7~~-12~~--|
A|-------------------|
D|-------------------|

G|----7---7---------------9--------------------------|
D|-555-555-5----7---7--777-7777-79-1010101010101010--|
A|----------555-555--5-------------------------------|  x2
D|---------------------------------------------------|

after second time

G|----------------|
D|--7-------------|
A|-5--5-55-55-555-|
D|----------------|

Verse(2:16)

G|----------------------------------------|
D|----------------------------------------|
A|-0-0-0-0023--------4----5-5-5-5-5-5-5-5-|
D|------------5-5-5-5-5-4-----------------|

G|----------------------------------------|
D|-------------------4--------------------|
A|-0-0-0-0023-5-5-5-5-54--55555555555555--|
D|----------------------------------------|

Chorus (2:36)

G|--------------------------------------------------------------------|
D|--------------------------------------------------------------------|
A|-----------------5-55-5-55-5-5-55-0-00-0-00-0-0-00-02---------------|
D|-5-55-5-55-5-5-55---------------------------------------------------| 

G|--------------------------------|
D|--------------------------------|       
A|--------------------------------|
D|-0-00-0-00-0-0-00--XXXXXX-------|

G|---------------------------------------------------------------|
D|-------------------------------------------------------5--5----|
A|--------------------------------0-00-0-00-0-0-00-023-33-33--3/-|
D|-5-55-5-55-5-55-0-00-0-00-0-0-00-------------------------------|

G|----------------------12---------12----------|
D|-----12--------12-1010--10101010---10101010--|
A|-1010--10101010------------------------------|
D|---------------------------------------------|

back to verse 1

well that's it comment pleasse
questions or comments email me
theusedplus44@aol.com
comments
print report bad tab
3 comments total.
0 reply
hayan wrote on January 23 2009, 02:54 am

Is this right, in A string , 9 flat??

0 reply
hoppusfan182 wrote on January 29 2009, 11:02 am

Ah i just notcied i did that and im not entirely sure why..

G|-------------------------------------------|
D|---------------------------6----------7--7-|
A|-0-0-0-0-00-23-3-3-3-7-7-77-76-5-5-55-55---|
D|-------------------------------------------|

G|-------------------------------------------|
D|---------------777777p5---------7--7-------|
A|-0-0-0-0-00-23---------h7-5-5-55-55--------|
D|-------------------------------------------|

G|-------------------------------------------|
D|-----------------------------6-----77--77--|
A|-0-0-0-0-00-23-3-3-3-3-7-7-77-76-55--55----|
D|-------------------------------------------|

G|-------------------------------------------|
D|-------------------------------------------|
A|-------------------------------------------|
D|-0~-12-12-12-12-12-12-12-12\---------------|

0 reply
hoppusfan182 wrote on November 14 2015, 08:43 am

G|-------------------------------------------|
D|---------------------------6----------7--7-|
A|-0-0-0-0-00-23-3-3-3-7-7-77-76-5-5-55-55---|
D|-------------------------------------------|

G|-------------------------------------------|
D|---------------777777p5---------7--7-------|
A|-0-0-0-0-00-23---------h7-5-5-55-55--------|
D|-------------------------------------------|

G|-------------------------------------------|
D|-----------------------------6-----77--77--|
A|-0-0-0-0-00-23-3-3-3-3-7-7-77-76-55--55----|
D|-------------------------------------------|

G|-------------------------------------------|
D|-------------------------------------------|
A|-------------------------------------------|
D|-0~-12-12-12-12-12-12-12-12\---------------|

I want to post or [tab]
guest
You may want to rate the tab now too:
select rating
Please do not post tabs as comments. Select "correction" instead!