Oops, an error
Loading. Please wait.

The Taste Of Ink Tab

version 8
31,534 views 39 this week
1 commentread comment
1 2 3 4 5
excellent!
x 14
add to favorites
launch autoscroll
font size
0
reset
how to read this tab
guitar tuner
Tab Pro tools
  • play this tab
  • loop segment
  • change instrument
  • show fretboard
  • metronome
×
Best way to learn
"The Taste Of Ink"
Autoscroll
slow
fast
+/-
esc
set tempo
stop
Contributor
Artist: The Used
Song: The Taste of Ink
Tuning: drop D (Low D) 
Tabber: Brad Abney
E-Mail: Hawthorne_heights_2@hotmail.com

This 100% so enjoi


Intro/Verse:
Guitar (Clean)

"Is it worth it........................"
E------------------------------------------------------------|
B------------------------------------------------------------|
G----7--7----------------------------------------7--7--7--7--|
D----x--x--10--9--/--12--12--10--9---7--7--7--5--5--5--5--5--|
A----7--7--7---7--/--10--10--10--10--5--5--5--5--7--7--7--7--|
D----7--7--7---7--/--10--10--10--10--5--5--5--5--0--0--0--0--|

Guitar(distortion)
E------------------------------------------------------------|
B------------------------------------------------------------|
G----7--7----------------------------------------7--7--7--7--|
D----x--x--10--9--/--12--12--10--9---7--7--7--5--5--5--5--5--|
A----7--7--7---7--/--10--10--10--10--5--5--5--5--7--7--7--7--|
D----7--7--7---7--/--10--10--10--10--5--5--5--5--0--0--0--0--|


Chorus:

"So here Im .........."
E--------------------------------------------------------------------------|
B--------------------------------------------------------(REPEAT)----------|
G--------------------------------------------------------------------------|
D--5--------0--------7--------9--------10-------xxxxxxx--------------------|
A--5—x8-----0-x8-----7-x5-----9-x1-----10-x8----xxxxxxx--------------------|
D--5--------0--------7--------9--------10-------xxxxxxx--------------------|


Verse 2:

"Won't you think Im ........."
E------------------------------------------------------------|
B------------------------------------------------------------|
G----7--7----------------------------------------7--7--7--7--|
D----x--x--10--9--/--12--12--10--9---7--7--7--5--5--5--5--5--|
A----7--7--7---7--/--10--10--10--10--5--5--5--5--7--7--7--7--|
D----7--7--7---7--/--10--10--10--10--5--5--5--5--0--0--0--0--|

E------------------------------------------------------------|
B------------------------------------------------------------|
G----7--7----------------------------------------7--7--7--7--|
D----x--x--10--9--/--12--12--10--9---7--7--7--5--5--5--5--5--|
A----7--7--7---7--/--10--10--10--10--5--5--5--5--7--7--7--7--|
D----7--7--7---7--/--10--10--10--10--5--5--5--5--0--0--0--0--|

Semi-Chorus:

E----------------------------------------------------------|
B----------------------------------------------------------|
G------------7---------7---------------0-------0-----------|
D----------9---9-----9---7--/--------9------12-------------|
A------10---------9---------/----12-----15-----------------|
D----------------------------------------------------------|


Chorus:

"So here Im .........."
E--------------------------------------------------------------------------|
B--------------------------------------------------------(REPEAT)----------|
G--------------------------------------------------------------------------|
D--5--------0--------7--------9--------10-------xxxxxxx--------------------|
A--5—x8-----0-x8-----7-x5-----9-x1-----10-x8----xxxxxxx--------------------|
D--5--------0--------7--------9--------10-------xxxxxxx--------------------|


Bride:                                    Let Ring
      "As long as your ........"
E--------------------------------------------------------|
B--------------------------------------------------------|
G-------7--7---------------------7--7--------------------|
D--5--5-7--7-7—-7H9/10--10--5--5-7--7-7—-7H9/10----------|
A--5--5-5--5-7—-7H9/10--10--5--5-5--5-7--7H9/10----------|
D--5--5------7—-7H9/10--10--5--5------7--7H9/10----------|


Verse 3:

"And Won't Im ......."
E------------------------------------------------------------|
B------------------------------------------------------------|
G----7--7----------------------------------------7--7--7--7--|
D----x--x--10--9--/--12--12--10--9---7--7--7--5--5--5--5--5--|
A----7--7--7---7--/--10--10--10--10--5--5--5--5--7--7--7--7--|
D----7--7--7---7--/--10--10--10--10--5--5--5--5--0--0--0--0--|

E------------------------------------------------------------|
B------------------------------------------------------------|
G----7--7----------------------------------------7--7--7--7--|
D----x--x--10--9--/--12--12--10--9---7--7--7--5--5--5--5--5--|
A----7--7--7---7--/--10--10--10--10--5--5--5--5--7--7--7--7--|
D----7--7--7---7--/--10--10--10--10--5--5--5--5--0--0--0--0--|

Semi-Chorus:

E----------------------------------------------------------|
B----------------------------------------------------------|
G------------7---------7---------------0-------0-----------|
D----------9---9-----9---7--/--------9------12-------------|
A------10---------9---------/----12-----15-----------------|
D----------------------------------------------------------|


Chorus:

"So here Im .........."
E--------------------------------------------------------------------------|
B--------------------------------------------------------(REPEAT)----------|
G--------------------------------------------------------------------------|
D--5--------0--------7--------9--------10-------xxxxxxx--------------------|
A--5—x8-----0-x8-----7-x5-----9-x1-----10-x8----xxxxxxx--------------------|
D--5--------0--------7--------9--------10-------xxxxxxx--------------------|


Outro:

E------------------------------------------------------------|
B------------------------------------------------------------|
G----7--7----------------------------------------7--7--7--7--|
D----x--x--10--9--/--12--12--10--9---7--7--7--5--5--5--5--5--|
A----7--7--7---7--/--10--10--10--10--5--5--5--5--7--7--7--7--|
D----7--7--7---7--/--10--10--10--10--5--5--5--5--0--0--0--0--|

Semi-Chorus:

E----------------------------------------------------------|
B----------------------------------------------------------|
G------------7---------7---------------0-------0-----------|
D----------9---9-----9---7--/--------9------12-------------|
A------10---------9---------/----12-----15-----------------|
D----------------------------------------------------------|
comments
print report bad tab
1 comment total.
+1 reply
dajgtre wrote on June 17 2008, 04:44 pm

I think this is the first tab of this song I've seen here that has the correct intro. Well done and thank you!

I want to post or [tab]
guest
You may want to rate the tab now too:
select rating
Please do not post tabs as comments. Select "correction" instead!