Oops, an error
Loading. Please wait.

Under Pressure Bass Tab

5,750 views 3 this week
3 commentsread comments
1 2 3 4 5
please rate
add to favorites
launch autoscroll
font size
0
reset
guitar tuner
Tab Pro tools
  • play this tab
  • loop segment
  • change instrument
  • show fretboard
  • metronome
×
Best way to learn
"Under Pressure"
Autoscroll
slow
fast
+/-
esc
set tempo
stop
Difficulty
novice
The song was originally done by the rock gods Queen joined by the White Duke Himself David Bowie.

(my chemical romance perform this song alongside the used)
Intro
|-----------------------------|
|-12-12-12-12-12-12-----------|   x18
|-------------------------12--|
|-----------------------------|

Verse 1: 0:38     Pres-sure..........
|------------------|-------------------|-------------------|----------------------|
|------------------|-------------------|-------------------|----------------------|   x2
|-5-5-5-5-5-5-0----|-4-4-4-4-4-4-0-----|-2-2-2-2-2-2-0-----|-0-0-0-0--2-0-4-0-----|
|------------------|-------------------|-------------------|----------------------|

Chorus: 0:55     It's the ter-ror.............

|---------------------|---------------------|---------------------|---------------------|---------------------|
|---------------------|-5-5-5-5-5-5-5-5-----|---------------------|-5-5-5-5-5-5-5-5-----|---------------------|
|---------------------|---------------------|---------------------|---------------------|---------------------|
|-3-3-3-3-3-3-3-3-----|---------------------|-3-3-3-3-3-3-3-3-----|---------------------|-2--------------3-5--|

Verse 2: 1:12      Chip-pin' a - round, _______ ................

|-----------------------------|
|-12-12-12-12-12-12-----------|   x8
|-------------------------12--|
|-----------------------------|

|---------------------|---------------------|---------------------|---------------------|
|---------------------|---------------------|---------------------|---------------------|    x2
|-5-5-5-5-5-5-5-5-----|-4-4-4-4-4-4-4-0-----|-2-2-2-2-2-2-2-0-----|-0-0-0-0-2-0-4-0-----|
|---------------------|---------------------|---------------------|---------------------|

Chorus 1:46

|---------------------|---------------------|---------------------|---------------------|---------------------|
|---------------------|-5-5-5-5-5-5-5-5-----|---------------------|-5-5-5-5-5-5-5-5-----|---------------------|
|---------------------|---------------------|---------------------|---------------------|---------------------|
|-3-3-3-3-3-3-3-3-----|---------------------|-3-3-3-3-3-3-3-3-----|---------------------|-2--------------3-5--|

Bridge: bass out untill bass comes back in at 2:18

|---------------------|---------------------|---------------------|---------------------|---------------------|
|---------------------|---------------------|---------------------|---------------------|---------------------|
|-0-0-0-0-0-0-0-0-----|---------------------|---------------------|---------------------|---------------------|
|---------------------|-1-1-1-1-1-1-1-1-----|-1-1-1-1-1-1-1-1-----|-1-1-1-1-1-1-1-1-----|-1-1-1-1-1-1-1-1-----|

|---------------------|---------------------|--------------------------------|-----------------------------|
|---------------------|---------------------|--------------------------------|-----------------------------|
|-0-0-0-0-0-0-0-0-----|-0-0-0-0-0-0-0-0-----|-12-12-12-12-12-12-12-12--------|-12-12-12-12-12-12-12--------|
|---------------------|---------------------|--------------------------------|-----------------------------|

|---------------------|---------------------|---------------------|---------------------|
|---------------------|---------------------|---------------------|---------------------|
|-5-5-5-5-5-5-5-5-----|---------------------|-5-5-5-5-5-5-5-5-----|---------------------|
|---------------------|-3-3-3-3-3-3-3-3-----|---------------------|-3-3-3-3-3-3-3-3-----|

|---------------------|---------------------|---------------------|---------------------|
|---------------------|---------------------|---------------------|---------------------|
|-5-5-5-5-5-5-5-5-----|---------------------|-5-5-5-5-5-5-5-5-----|---------------------|
|---------------------|-3-3-3-3-3-3-3-3-----|---------------------|-4-4-4-4-4-4-4-4-----|

|---------------------|---------------------|---------------------|---------------------|
|---------------------|---------------------|---------------------|---------------------|
|-2-2-2-2-2-2-2-2-----|-0-0-0-0-0-0-0-0-----|-5-5-5-5-5-5-5-5-----|-4-4-4-4-4-4-4-4-----|
|---------------------|---------------------|---------------------|---------------------|

|---------------------|---------------------|---------------------|---------------------|
|---------------------|---------------------|---------------------|---------------------|
|---------------------|-0-0-0-0-0-0-0-0-----|-5-5-5-5-5-5-5-5-----|-4-4-4-4-4-4-4-4-----|
|-2-2-2-2-2-2-2-2-----|---------------------|---------------------|---------------------|

|---------------------|---------------------|
|---------------------|---------------------|
|-2-2-2-2-2-2-2-2-----|-0-0-0-0-0-0-0-0-----|
|---------------------|---------------------|

Chorus: 3:15

|---------------------|---------------------|---------------------|---------------------|
|---------------------|---------------------|---------------------|---------------------|
|-3-3-3-3-3-3-3-3-----|-3-3-3-3-3-3-3-3-----|-3-3-3-3-3-3-3-3-----|-5-5-5-5-5-5-5-5-----|
|---------------------|---------------------|---------------------|---------------------|

|---------------------|
|---------------------|
|-2-------------3-5---|
|---------------------|
i know its long, but it sounds awesome when you play it, :)
samd_14@hotmail.co.uk


Brought to you by the BassMasta
http://www.bassmasta.net/u/used,_the/139939.html

comments
We did not receive enough feedback on this tab! Please rate:
print report bad tab
1 2 3 4 5
3 comments total.
0 reply
brandayyy wrote on May 6 2009, 10:05 pm

This tab is awesome to play the only part I think might possibly be messed up is on the 1st chorus at 0:55 I think it sounds better if you play it like this:

|---------------------|---------------------|---------------------|---------------------|---------------------|
|---------------------|---------------------|---------------------|---------------------|---------------------|
|---------------------|-5-5-5-5-5-5-5-5-----|---------------------|-5-5-5-5-5-5-5-5-----|---------------------|
|-3-3-3-3-3-3-3-3-----|---------------------|-3-3-3-3-3-3-3-3-----|---------------------|-2--------------3-5--|

0 reply
brandayyy wrote on May 6 2009, 10:06 pm

This tab is awesome to play the only part I think might possibly be messed up is on the 1st chorus at 0:55 I think it sounds better if you play it like this:

|---------------------|---------------------|---------------------|---------------------|---------------------|
|---------------------|---------------------|---------------------|---------------------|---------------------|
|---------------------|-5-5-5-5-5-5-5-5-----|---------------------|-5-5-5-5-5-5-5-5-----|---------------------|
|-3-3-3-3-3-3-3-3-----|---------------------|-3-3-3-3-3-3-3-3-----|---------------------|-2--------------3-5--|

0 reply
pickslider111 wrote on May 27 2009, 02:10 am

umm is this standard tuning?

I want to post or [tab]
guest
You may want to rate the tab now too:
select rating
Please do not post tabs as comments. Select "correction" instead!