Oops, an error
Loading. Please wait.

Wake The Dead Bass Tab

2,197 views 3 this week
2 commentsread comments
1 2 3 4 5
accurate
x 2
add to favorites
launch autoscroll
font size
0
reset
guitar tuner
Tab Pro tools
  • play this tab
  • loop segment
  • change instrument
  • show fretboard
  • metronome
Autoscroll
slow
fast
+/-
esc
set tempo
stop
Contributor
REGULAR EADG TUNING!!

Intro comes in at 0:20 seconds

x2

G|-----------------------|
D|-----------------------|
A|---2-55-4-77-2-55-4----|
E|22------------------22-|


verse x4

G|-----------------------|
D|-----------------------|
A|---2-55-4-7-2-55-4-----|
E|22------------------22-|


"Yea, with no heart beat"


G|------------------------|
D|------------------------|
A|------------------------|
E|33-33-33-22-33-33-33-XX-|


Chorus:

G|------------------------------------------------------------------|
D|------------------------------------------------------------------|
A|22222222-5555555555------------3333-22222222-555555555------------|
E|--------------------33333333333-----------------------3-3-3-3-3-3-|


this x2
G|------------------------|
D|------------------------|
A|---2-55-44-77-2-55-4----|
E|--------------------22--|


2nd verse is the same just with some crazy cool effect

x4
G|-----------------------|
D|-----------------------|
A|---2-55-4-77-2-55-4----|
E|--------------------22-|


"Yea, with no heart beat"


G|------------------------|
D|------------------------|
A|------------------------|
E|33-33-33-22-33-33-33-XX-|

Chorus:

G|-------------------------------------------------------------------|
D|-------------------------------------------------------------------|
A|22222222-5555555555------------3333-22222222-555555555-------------|
E|--------------------33333333333-----------------------3-3-3-3-3-3~-|

G|-----------|
D|-----------|
A|-----------|
E|2~---------|


slow break down: x3
G|------------|
D|------------|
A|2~~~--------|
E|---4~-2-4-6-|

then: x2
G|--------------------------------------------|
D|--------------------------------------------|
A|--------------------------------------------|
E|33-33-3-xx-33-33-2-22-33-33-3-22-33-33-2-22-|

the 3rd time is just
G|-------------------------|
D|-------------------------|
A|-------------------------|
E|333333333333333333333333/


then cut into the middle of the chorus:

x1

G|--------------------------------------------------|
D|--------------------------------------------------|
A|--------------3333-2222222222555555555------------|
E|3333333333333-------------------------3-3-3-3-3-3-|


then full chorus x2

G|-------------------------------------------------------------------|
D|-------------------------------------------------------------------|
A|22222222-5555555555------------3333-22222222-555555555-------------|
E|--------------------33333333333-----------------------3-3-3-3-3-3--|


then outro  x4


G|------------------------|
D|------------------------|
A|---2-55-44-77-2-55-4----|
E|--------------------22--|

wake the dead.
comments
We did not receive enough feedback on this tab! Please rate:
print report bad tab
1 2 3 4 5
2 comments total.
0 reply
someperson wrote on May 29 2007, 05:22 pm

Its ok. Not too good, but not bad. The verse seems off.

0 reply
fenderbassdude wrote on March 31 2008, 05:38 pm

the verse is fine just need to get the rhythm of it. the slow break down sounds wrong though

I want to post or [tab]
guest
You may want to rate the tab now too:
select rating
Please do not post tabs as comments. Select "correction" instead!