Oops, an error
Loading. Please wait.

Wake The Dead Tab

version 2
version 2

Whole song

765 views 1 this week
1 commentread comment
1 2 3 4 5
accurate
x 3
add to favorites
launch autoscroll
font size
0
reset
how to read this tab
guitar tuner
Tab Pro tools
  • play this tab
  • loop segment
  • change instrument
  • show fretboard
  • metronome
×
Best way to learn
"Wake The Dead"
Autoscroll
slow
fast
+/-
esc
set tempo
stop
Contributor
Tuning
D A D G B E
Wake The Dead (Lead & Rhythm)

Tuning: Drop D (DADGBe)

Lead
Intro/Riff
e|---------------------------------------------------------------------|
B|---------------------------------------------------------------------|
G|---------------------------------------------------------------------|
D|---------------------------------------------------------------------|
A|---------------------------------------------------------------------|
D|-----0h9-12-12-11-11-12-14---0h9-12-12-11-11-4-4---------------------|

e|-----------------------------------------------------------------------|
B|-----------------------------------------------------------------------|
G|-----------------------------------------------------------------------|
D|----------------------------------------------4-4----------------------|
A|----------------------------------------------4-4----------------------|
D|-----0h9-12-12-11-11-12-14---0h9-12-12-11-11--4-4----------------------|

e|---------------------------------------------------------------------|
B|---------------------------------------------------------------------|
G|---------------------------------------------------------------------|
D|---------------------------------------------------------------------|
A|---------------------------------------------------------------------|
D|-----0h9-12-12-11-11-12-14---0h9-12-12-11-11-4-4---------------------|

e|---------------------------------------------------------------------|
B|---------------------------------------------------------------------|
G|---------------------------------------------------------------------|
D|---------------------------------------------------------------------|
A|---------------------------------------------------------------------|
D|-----0h9-12-12-11-11-12-14---0h9-12-12-11-11-4-4---------------------|

Verse - Do Intro (palm muted) 4x
add this at end of verse
e|---------------------|
B|---------------------|
G|--------------9------|
D|-5-5-5-4--5-5-X------|
A|-5-5-5-4--5-5-7------|
D|-5-5-5-4--5-5--------|



Chorus - figure out strumming
e|------------------------------------------------------------------|
B|------------------------------------------------------------------|
G|------------------------------------------------------------------|
D|--9999999999-121212121212-5555555555555555555-10101010101010------| 2x
A|--9999999999-121212121212-5555555555555555555-10101010101010------|
D|--9999999999-121212121212-5555555555555555555-10101010101010------|

e|----------------|
B|----------------|
G|-------------9--|
D|-5-5-5--5-5--X--|
A|-5-5-5--5-5--7--|
D|-5-5-5--5-5-----|

Rpt. Intro 2x

Verse 2
Bass only
Then Guitar comes in
e|--------------|
B|--------------|
G|--5--5--------|
D|--5--5--------|
A|--3--3--------|
D|--------------|

the rest is the same as verse 1

Rpt. Chorus
add this at end of chorus (adjust to this transition)
e|----------------|
B|----------------|
G|----------------|
D|--10---9--------|
A|--10---9--------|
D|--10---9--------|



Bridge
e|-----------------------------------|
B|-----------------------------------|
G|-----------------------------------|
D|--9------8------6------4-----------|
A|--9------8------6------4-----------|     2x
D|--9------8------6------4-----------|

then (tapping)
e|--t12p11p9h11-(8x)-t11p9p7h9-(8x)-t7p6p4h6-(8x)-t10p9p7h9-(8x)-------|
B|---------------------------------------------------------------------|
G|---------------------------------------------------------------------|
D|---------------------------------------------------------------------|
A|---------------------------------------------------------------------|
D|---------------------------------------------------------------------|
                      
"a beautiful night to die"
e|---------------------------------------------------------------------|
B|---------------------------------------------------------------------|
G|---------------------------------------------------------------------|
D|-5-5-5-4-555-55-4--5-5-5-4--555-55-4---5-5-5-4--555-55-4-------------|
A|-5-5-5-4-555-55-4--5-5-5-4--555-55-4---5-5-5-4--555-55-4-------------|
D|-5-5-5-4-555-55-4--5-5-5-4--555-55-4---5-5-5-4--555-55-4-------------|

e|--------------------------------------------|
B|--------------------------------------------|
G|--------------------------------------------|
D|-5-5-5-4---555-55-4--55555555-\-------------|
A|-5-5-5-4---555-55-4--55555555-\-------------|
D|-5-5-5-4---555-55-4--55555555-\-------------|

Rpt. Chorus 2x

Riff 2
e|----------------------------------|
B|----------------------------------|
G|----------------------------------|
D|----------------------------------| 2x
A|----------------------------------|
D|--9-12-11-12-14--9-12-11-4-4------|

Rpt. Intro 2x

End On
|-------|
|-------|
|--4-4--|
|--4-4--|
|--4-4--|

---------------------------------------------------------------------------

Rhythm

Do Intro 3x

Verse - come in after lead does intro 2x
e|-------|
B|-------|
G|-------|
D|-4-4---|
A|-4-4---|
D|-4-4---|

Do Intro 2x (palm muted)

then
e|----------------------|
B|----------------------|
G|----------------------|
D|--5-5-5-4--5-5-5------|
A|--5-5-5-4--5-5-5------|
D|--5-5-5-4--5-5-5------|

Chorus - figure out strumming
e|--------------------------------------|
B|--------------------------------------|
G|--------------------------------------|
D|--9--12--5--10--------5-5-5--5-5-5----|
A|--9--12--5--10--(2x)--5-5-5--5-5-5----|
D|--9--12--5--10--------5-5-5--5-5-5----|

Verse 2
bass first
then
e|------------|
B|------------|
G|------------|
D|--9---9-----|
A|--9---9-----|
D|--9---9-----|
the rest is the same as verse 1

Rpt. Chorus
add this after chorus
e|------------|
B|------------|
G|------------|
D|--10---9----|
A|--10---9----|
D|--10---9----|

Bridge
e|--------------------------------------------------------|
B|--------------------------------------------------------|
G|--------------------------------------------------------|
D|-9~--8~--6~--4~--------9~--8~--6~-----------------------|
A|-9~--8~--6~--4~--(2x)--9~--8~--6~-----------------------|
D|-9~--8~--6~--4~--------9~--8~--6~--55555555-44444444----|
                                     .................

Do "a beautiful night to die" from lead

Rpt.Chorus
Do riff 2 2x (from lead)
Rpt. Intro 2x

End
e|----------------|
B|----------------|
G|----------------|
D|----4----4------|
A|----4----4------|
D|----4----4------|
comments
We did not receive enough feedback on this tab! Please rate:
print report bad tab
1 2 3 4 5
1 comment total.
0 reply
NemX162 wrote on October 16 2008, 09:09 am

Why did this get accepted? It has the same mistake as version one. Those 0's should be 4's. Most of them. Damn...

I want to post or [tab]
guest
You may want to rate the tab now too:
select rating
Please do not post tabs as comments. Select "correction" instead!