Oops, an error
Loading. Please wait.

With Me Tonight bass

version 1
version 1

Whole song

Interactive

1,755 views 1 this week
no commentswrite comment
1 2 3 4 5
3 more votes to show rating
add to favorites
×
Save as Personal and add changes to this tab that will be seen only by you. Learn more ›
×
You can save this tab as Personal to edit and correct it or add notes. All changes will be seen only by you. Learn more »
launch autoscroll
font size
0
reset
guitar tuner
edit
Autoscroll
slow
fast
+/-
esc
set tempo
stop
Author
Difficulty
-------------------------------------------------------------------------------
			     With Me Tonight - The Used
-------------------------------------------------------------------------------
Tabbed by: MyChemicalLife a.k.a AblinkVboxaA
Email: ablinkvboxa@hotmail.com (feel free to e-mail with comments or corrections THANKS!)

Yeah ^^ this is the girl who tabbed the original tab, all i have done is make it
for bass seeing as there is no bass tab on here.. and this sounds pretty groovy just to 
on
own with the music in the background, this is not the bass tab [as i know] that the 
plays in the song. but it sounds REALLY cool on bass so yeah (:

Im KB
email: music-luva-undercover@hotmail.co.uk
yeah (:

Tuning: Standard EADGBe


Okay so i kinda took a guitar tab.. and took off the bottom higher e and the b string
of tab, which nothing was on anyways.. and


Intro

G|-------2-------------------------2----------------------------------2------|
D|---------5-4-2-0-------------------5-4-2-0--7/2----------------------------|
A|-0-2-2-----------5-5-5-5---0-2-2------------------------------0-2-2--------|
E|------------------------------------------------3-------5~~----------------|
   . . .   . . . . . . .     . . .   . . . .                    . . .

G|-------------------------------2--------7/2--------------------------------|
D|-5-4-2-0-2-2h4p2-----------------5-4-2-------------------------------------|
A|------------------5-2-0---2-2---------------------------0-1~~--------------|
E|---------------------------------------------------------------------------|
   . . . . .                . .   . . .

G|-----------------------------------------------|---------------------------|
D|------------------------------------------x2---|---------------------------|
A|-0-2-2-2-2-2-2-2-2-----------5-5-5-5-5---------|--------------------555555-|
E|-------------------3-3-3-3-3-------------------|---------------------------|
   . . . . . . . . . . . . . . . . . . .

G|---------------------------------------------------------------------------|
D|---------------------------------------------------------------------------|
A|---------------------------------------------------------------------------|
E|-0-000--2-222--3-333---5~--------------------------------------------------|


Chorus

G|-----------------------------------------------------------------------------|
D|-----------------------------------------------------------------------------|
A|-222222222222-------------------------5555555555---22222222222---------------|
E|---------------22222222222-3333333333--------------------------2222222222-5\-|


G|-------2-------------------------2-----------------------------------------|
D|---------5-4-2-0-------------------5-4-2-0----*pause*----------------------|
A|-0-2-2-----------5-5-5-5---0-2-2----------------------0-1------------------|
E|---------------------------------------------------------------------------|
   . . .   . . . . . . .     . . .   . . . .


G|---------------------------------------------------------------------------|
D|---------------------------------------------------------------------------|
A|-0-2-2-2-2-2-2-2-2-----------5-5-5-5-5-------------------------------------|
E|-------------------3-3-3-3-3-----------------------------------------------|
   . . . . . . . . . . . . . . . . . . .


G|--------------------------------------------------------------------------|
D|--------------------------------------------------------------------------|
A|-0-2-2-2-2-2-2-2-2-----------5-5-5-5-5-----555555-------------------------|
E|-------------------3-3-3-3-3----------------------------------------------|


G|---------------------------------------------------------------------------|
D|---------------------------------------------------------------------------|
A|---------------------------------------------------------------------------|
E|-0-000--2-222--3-333---5~-55555--------------------------------------------|

Chorus

G|-----------------------------------------------------------------------------|
D|-----------------------------------------------------------------------------|
A|-222222222222-------------------------5555555555---22222222222---------------|
E|---------------22222222222-3333333333--------------------------2222222222----|

G|---------------------------------------------------------------------------|
D|---------------------------------------------------------------------------|
A|---------------------22222222222-----------------------5555555555----------|
E|-333333333333333333--------------2222222222-3333333333---------------------|


G|---------------------------------------------------------------------------|
D|---------------------------------------------------------------------------|
A|-222222222222------------5\------------------------------------------------|
E|--------------2222222222------1/12--101010101010101010\\-------------------|


G|----------------------4------------------4----------------------4----------|
D|----------5-5-4-2-2-4-----------5-5-4-2~-----------5-5-4-2-2-4-------------|
A|-2-2-2222---------------2-2-222------------2-2-222----------------2--------|
E|---------------------------------------------------------------------------|
  . . ..... . . . . . .     . ... . . .        . ... . . . . . .


G|--------------------4------------------------------------------------------|
D|-------5-5-4-2-2-4------------5-5-4-2--------------------------------------|
A|-2-222----------------2-2-222----------------------------------------------|
E|---------------------------------------------------------------------------|
   . ... . . . . . .      . ... . . . .

Heavy Part

G|---------------------------------------------------------------------------|
D|---------------------------------------------------------------------------|
A|-22------------------22---------------22------------------22---------------|
E|----0000-3-3-2-0-0-2----0000-3-3-2--------0000-3-3-2-0-0-2---0000-3-3-2-0~~|

G|---------------------------------------------------------------------------|
D|---------------------------------------------------------------------------|
A|---------------------------------------------------------------------------|
E|-0-000--2-222--3-333---5~--------------------------------------------------|

Chorus


G|----------------------------------------------------------------------------|
D|----------------------------------------------------------------------------|
A|-222222222222-------------------------5555555555---22222222222--------------|
E|---------------22222222222-3333333333--------------------------2222222222---|


G|---------------------------------------------------------------------------|
D|---------------------------------------------------------------------------|
A|---------------------22222222222-------------------------------------------|
E|-333333333333333333--------------2222222222-333333333333333333333----------|


G|----------------------------------------------------------------------------|
D|----------------------------------------------------------------------------|
A|-222222222222---------------------------------------------------------------|
E|---------------22222222222-3333333333---------------------------------------|


G|-------2-------------------------2----------------------------------2------|
D|---------5-4-2-0-------------------5-4-2-0--7/2----------------------------|
A|-0-2-2-----------5-5-5-5---0-2-2------------------------------0-2-2--------|
E|------------------------------------------------3-------5~~----------------|
   . . .   . . . . . . .     . . .   . . . .                    . . .


G|-------------------------------2--------7/2--------------------------------|
D|-5-4-2-0-2-2h4p2-----------------5-4-2-------------------------------------|
A|------------------5-2-0---2-2------------------0-1-2~~---------------------|
E|---------------------------------------------------------------------------|
   . . . . .                . .   . . .


ENJOY!


| /  slide up
| \  slide down
| h  hammer-on
| p  pull-off
| ~  vibrato
| +  harmonic
| x  Mute note
===============================================================================
Suggest correction
Creating personal tab
Creating personal tab
You can edit any tab online and save it as your Personal.

You can edit, replace or remove any tab part or add personal notes – all changes will be seen only by you.

Personal tabs can be accessed anytime from any device, even offline.
Learn more »
Give kudos to tab author, rate the tab!
1 2 3 4 5
comments
print report bad tab
guest
You may want to rate the tab now too:
select rating
Wanna post a correction for this tab? Suggest correction