Oops, an error
Loading. Please wait.

With Me Tonight Tab

version 1
version 1

Whole song

Interactive

12,025 views 6 this week
7 commentsread comments
1 2 3 4 5
accurate
x 8
add to favorites
launch autoscroll
font size
0
reset
how to read this tab
guitar tuner
Tab Pro tools
  • play this tab
  • loop segment
  • change instrument
  • show fretboard
  • metronome
×
Best way to learn
"With Me Tonight"
Autoscroll
slow
fast
+/-
esc
set tempo
stop
Contributor
Difficulty
intermediate
-------------------------------------------------------------------------------
                             With Me Tonight - The Used
-------------------------------------------------------------------------------
Tabbed by: MyChemicalLife a.k.a AblinkVboxaA
Email: ablinkvboxa@hotmail.com (feel free to e-mail with comments or corrections THANKS!)

Tuning: Standard EADGBe


Yet another first tab for the used lol.
This time its for one of the coolest songs on the new album with me tonight...
Enjoy!!!
This took a while :P


Intro
e|---------------------------------------------------------------------------|
B|---------------------------------------------------<5>---------------------|
G|-------2-------------------------2-----------------<5>--------------2------|
D|---------5-4-2-0-------------------5-4-2-0--7/2----<5>---------------------|
A|-0-2-2-----------5-5-5-5---0-2-2------------------------------0-2-2--------|
E|-----------------3-3-3--------------------------3-------5~~----------------|
   . . .   . . . . . . .     . . .   . . . .                    . . . 
e|---------------------------------------------------------------------------|
B|---------------------------------------------------------------------------|
G|-------------------------------2--------7/2--------------------------------|
D|-5-4-2-0-2-2h4p2-----------------5-4-2-------------------------------------|
A|------------------5-2-0---2-2---------------------------0-1~~--------------|
E|---------------------------------------------------------------------------|
   . . . . .                . .   . . . 
e|-----------------------------------------------|---------------------------|
B|-----------------------------------------------|--end-2nd-time-adding------|
G|-----------------------------------------------|--------------------777777-|
D|-0-4-4-4-4-4-4-4-4-----------7-7-7-7-7----x2---|--------------------777777-|
A|-0-2-2-2-2-2-2-2-2-5-5-5-5-5-5-5-5-5-5---------|--------------------555555-|
E|-------------------3-3-3-3-3-------------------|---------------------------|
   . . . . . . . . . . . . . . . . . . .
e|---------------------------------------------------------------------------|
B|---------------------------------------------------------------------------|
G|---------------------------------------------------------------------------|
D|-2-222--4-444--5-555---7~--------------------------------------------------|
A|-2-222--4-444--5-555---5~--------------------------------------------------|
E|-0-000--2-222--3-333---5~--------------------------------------------------|


Chorus
e|-----------------------------------------------------------------------------|
B|-----------------------------------------------------------------------------|
G|-444444444444-------------------------7777777777---44444444444---------------|
D|-444444444444--44444444444-5555555555-7777777777---44444444444-4444444444-7\-|
A|-222222222222--44444444444-5555555555-5555555555---22222222222-4444444444-7\-|
E|---------------22222222222-3333333333--------------------------2222222222-5\-|

e|---------------------------------------------------------------------------|
B|---------------------------------------------------------------------------|
G|-------2-------------------------2-----------------------------------------|
D|---------5-4-2-0-------------------5-4-2-0----*pause*----------------------|
A|-0-2-2-----------5-5-5-5---0-2-2----------------------0-1------------------|
E|-----------------3-3-3-----------------------------------------------------|
   . . .   . . . . . . .     . . .   . . . .   

e|---------------------------------------------------------------------------|
B|---------------------------------------------------------------------------|
G|---------------------------------------------------------------------------|
D|-0-4-4-4-4-4-4-4-4-----------7-7-7-7-7-------------------------------------|
A|-0-2-2-2-2-2-2-2-2-5-5-5-5-5-5-5-5-5-5-------------------------------------|
E|-------------------3-3-3-3-3-----------------------------------------------|                 
   . . . . . . . . . . . . . . . . . . .

e|--------------------------------------------------------------------------|
B|--------------------------------------------------------------------------|
G|---4-4-4-4-4-4-4-4-----------7-7-7-7-7-----777777-------------------------|
D|-0-4-4-4-4-4-4-4-4-5-5-5-5-5-7-7-7-7-7-----777777-------------------------|
A|-0-2-2-2-2-2-2-2-2-5-5-5-5-5-5-5-5-5-5-----555555-------------------------|
E|-------------------3-3-3-3-3----------------------------------------------|

e|---------------------------------------------------------------------------|
B|---------------------------------------------------------------------------|
G|---------------------------------------------------------------------------|
D|-2-222--4-444--5-555---7~-77777--------------------------------------------|
A|-2-222--4-444--5-555---5~-55555--------------------------------------------|
E|-0-000--2-222--3-333---5~-55555--------------------------------------------|

Chorus
e|-----------------------------------------------------------------------------|
B|-----------------------------------------------------------------------------|
G|-444444444444-------------------------7777777777---44444444444---------------|
D|-444444444444--44444444444-5555555555-7777777777---44444444444-4444444444----|
A|-222222222222--44444444444-5555555555-5555555555---22222222222-4444444444----|
E|---------------22222222222-3333333333--------------------------2222222222----|



e|---------------------------------------------------------------------------|
B|---------------------------------------------------------------------------|
G|---------------------44444444444-----------------------7777777777----------|
D|-555555555555555555--44444444444-4444444444-5555555555-7777777777----------|
A|-555555555555555555--22222222222-4444444444-5555555555-5555555555----------|
E|-333333333333333333--------------2222222222-3333333333---------------------|

e|---------------------------------------------------------------------------|
B|---------------------------------------------------------------------------|
G|-444444444444------------7\------------------------------------------------|
D|-444444444444-4444444444-7\---------121212121212121212\\-------------------|
A|-222222222222-4444444444-5\---------xxxxxxxxxxxxxxxxxx\\-------------------|
E|--------------2222222222------1/12--101010101010101010\\-------------------|

e|---------------------------------------------------------------------------|
B|---------------------------------------------------------------------------|
G|----------------------4------------------4----------------------4----------|
D|----------5-5-4-2-2-4-----------5-5-4-2~-----------5-5-4-2-2-4-------------|
A|-2-2-2222---------------2-2-222------------2-2-222----------------2--------|
E|---------------------------------------------------------------------------|
  . . ..... . . . . . .     . ... . . .        . ... . . . . . .
e|---------------------------------------------------------------------------|
B|---------------------------------------------------------------------------|
G|--------------------4------------------------------------------------------|
D|-------5-5-4-2-2-4------------5-5-4-2--------------------------------------|
A|-2-222----------------2-2-222----------------------------------------------|
E|---------------------------------------------------------------------------|
   . ... . . . . . .      . ... . . . .  

Heavy Part
e|---------------------------------------------------------------------------|
B|---------------------------------------------------------------------------|
G|-44------------------44------------4~-44------------------44---------------|
D|-22------------------22---------------22------------------22---------------|
A|-22------------------22---------------22------------------22---------------|
E|----0000-3-3-2-0-0-2----0000-3-3-2--------0000-3-3-2-0-0-2---0000-3-3-2-0~~|

e|---------------------------------------------------------------------------|
B|---------------------------------------------------------------------------|
G|---------------------------------------------------------------------------|
D|-2-222--4-444--5-555---7~--------------------------------------------------|
A|-2-222--4-444--5-555---5~--------------------------------------------------|
E|-0-000--2-222--3-333---5~--------------------------------------------------|

Chorus
e|----------------------------------------------------------------------------|
B|----------------------------------------------------------------------------|
G|-444444444444-------------------------7777777777---44444444444--------------|
D|-444444444444--44444444444-5555555555-7777777777---44444444444-4444444444---|
A|-222222222222--44444444444-5555555555-5555555555---22222222222-4444444444---|
E|---------------22222222222-3333333333--------------------------2222222222---|

e|---------------------------------------------------------------------------|
B|---------------------------------------------------------------------------|
G|---------------------44444444444-------------------------------------------|
D|-555555555555555555--44444444444-4444444444-555555555555555555555----------|
A|-555555555555555555--22222222222-4444444444-555555555555555555555----------|
E|-333333333333333333--------------2222222222-333333333333333333333----------|

e|----------------------------------------------------------------------------|
B|----------------------------------------------------------------------------|
G|-444444444444---------------------------------------------------------------|
D|-444444444444--44444444444-5555555555---------------------------------------|
A|-222222222222--44444444444-5555555555---------------------------------------|
E|---------------22222222222-3333333333---------------------------------------|

e|---------------------------------------------------------------------------|
B|---------------------------------------------------<5>---------------------|
G|-------2-------------------------2-----------------<5>--------------2------|
D|---------5-4-2-0-------------------5-4-2-0--7/2----<5>---------------------|
A|-0-2-2-----------5-5-5-5---0-2-2------------------------------0-2-2--------|
E|-----------------3-3-3--------------------------3-------5~~----------------|
   . . .   . . . . . . .     . . .   . . . .                    . . . 

e|---------------------------------------------------------------------------|
B|---------------------------------------------------------------------------|
G|-------------------------------2--------7/2--------------------------------|
D|-5-4-2-0-2-2h4p2-----------------5-4-2-------------------------------------|
A|------------------5-2-0---2-2------------------0-1-2~~---------------------|
E|---------------------------------------------------------------------------|
   . . . . .                . .   . . . 


ENJOY!


| /  slide up
| \  slide down
| h  hammer-on
| p  pull-off
| ~  vibrato
| +  harmonic
| x  Mute note
===============================================================================
comments
print report bad tab
7 comments total. Showing first comments.
0 reply
f1f2 wrote on May 23 2007, 12:10 am

wow, very nice (5*)
i'm disappointed on the album, i only liked earthquake and smother me :)
i liked the old school form of the used

0 reply
Goobaloo wrote on May 28 2007, 01:23 am

i think the intro is kinda wrong. parts of it are right, but im not sure

0 reply
thx4thevenom32 wrote on June 20 2007, 11:33 am

this is way easier in drop d

I want to post or [tab]
guest
You may want to rate the tab now too:
select rating
Please do not post tabs as comments. Select "correction" instead!