Oops, an error
Loading. Please wait.

Yesterdays Feelings Bass Tab

version 1
version 1

Whole song

Interactive

504 views 1 this week
no commentswrite comment
1 2 3 4 5
please rate
add to favorites
launch autoscroll
font size
0
reset
guitar tuner
Tab Pro tools
  • play this tab
  • loop segment
  • change instrument
  • show fretboard
  • metronome
×
Best way to learn
"Yesterdays Feelings"
Autoscroll
slow
fast
+/-
esc
set tempo
stop
Contributor
++++++++++++++++++++++++++++++++++
| The Used- Yesterday's Feelings |
++++++++++++++++++++++++++++++++++


"Close my eyes and move to the back of my mind..."

Tuning: EADG



Intro
1.
G|---------------------7-----------------------|
D|-------7~----------7---7-----------5~--------|
A|-5~--5-----5-5~--5-------3~---3~-------------|
E|---------------------------------------------|

Verse
"Close my eyes and move to the back of my mind..."
2.
G|------------------------------------------5-------------------------7--------------------------|
D|------------7~--------7-------5~------------5---------7~----------7---7-------5~---------------|
A|5~--5-5~--5-----5-5-5---3~--3-----3-3~--3-----3-5~--5-----5-5~--5-------3~--3-----3-3~--3-5-3-0|
E|-----------------------------------------------------------------------------------------------|

Chorus
"All those feelings..."
3.
G|------------------------------------------------------------------------------------------|
D|---------------------------------------0--------------------------------------------------|
A|-------0~--0-2~--2-0~--0-------0~--0-2---2-0~--0-------0~--0-2~--2-0~--0-------0~--0-5~---|
E|-3~--3-------------------3~--3-------------------3~--3-------------------3~--3------------|

Verse
"Left the only worries..."
4.
G|-------------------7-----------------------------------------------7-------------------------5\|
D|-----7~----------7---7-------5~----------5-7-5-------7~----------7---7-------5~----------5-----|
A|5~-5-----5-5~--5-------3~--3-----3-3~--3-------5~--5-----5-5~--5-------3~--3-----3-3~--3---3---|
E|-----------------------------------------------------------------------------------------------|

Chorus
"All those feelings..."
5.
G|---------------------------------------------------------------------------------------------|
D|---------------------------------------0-----------------------0-----------------------------|
A|-------0~--0-2~--2-0~--0-------0~--0-2---2-0~--2-------0~--0-2---2-0~--2-------0~--0-5~--5~--|
E|-3~--3-------------------3~--3-------------------3~--3-------------------3~--3---------------|

"Yeah today is on my mind..."
6.
G|-4~--4-2~--2-|
D|-------------|
A|-------------|
E|-------------|

Bridge
"Now I cant care to worry..."
7.
G|-------------------------------------------------|
D|-------3-----------3-----------3-----------3-----|
A|-1-1-1---1-1-1-1-1---1-1-1-1-1---1-1-1-1-1---1-1-|
E|-------------------------------------------------|

Verse
"Close my eyes and move to the back of my mind..."
8.
G|---------------------7-------------------------|
D|-------7~----------7---7-------5~----5~--------|
A|-5~--5-----5-5~--5-------3~--3-----3-----------|
E|-----------------------------------------------|

Chorus
"All those feelings..."
9.
G|---------------------------------------------------------------------------------------------|
D|---------------------------------------0-----------------------0-----------------------------|
A|-------0~--0-2~--2-0~--0-------0~--0-2---2-0~--2-------0~--0-2---2-0~--2-------0~--0-5~--5~--|
E|-3~--3-------------------3~--3-------------------3~--3-------------------3~--3---------------|

"For today is on my mind..."
10.
G|-------------------------4~--4-2~--2-|
D|-------------------------------------|
A|-------0~--0-2~--2-5~--5-------------|
E|-3~--3-------------------------------|

Outro
"Now I cant care to worry..."
11.
G|-------------------------------------------------|
D|---3-----------3-----------3-----------3---------|
A|-1---1-1-1-1-1---1-1-1-1-1---1-1-1-1-1---1-1-1-1-|
E|-------------------------------------------------|

12.
G|-------------------|
D|-------------------|
A|-5~----------------|
E|-------------------|


Please rate thanks!!


Lyrics:

Close my eyes and move to the back of my mind
Where worries are washed out to sea
See the changes, people's faces blurred out
Like the sun spots or raindrops

Now all those feelings, those yesterdays feelings will all be lost in time
but today I've wasted away for today is on my mind

Left the only worries I had in my hands
Away from the light in my eyes
Holding tight and try not to hide how I feel
'Cause feelings mean nothing now

All those feelings, those yesterdays feelings will all be lost in time
but today I've wasted away for today is on my mind 
(yeah today is on my mind)

Now I can't care to worry
I'm feeling so lonely
Breaking apart all this love in my heart

Close my eyes and move to the back of my mind
Where feelings mean nothing now



+++++++++++++++++++++++++++++++++
| Raileff                       |
| Underground__Dora@Hotmail.Com |
+++++++++++++++++++++++++++++++++
comments
We did not receive enough feedback on this tab! Please rate:
print report bad tab
1 2 3 4 5
I want to post or [tab]
guest
You may want to rate the tab now too:
select rating
Please do not post tabs as comments. Select "correction" instead!