Oops, an error
Loading. Please wait.

Yesterdays Feelings Tab

version 1
version 1

Whole song

Interactive

14,543 views 9 this week
3 commentsread comments
1 2 3 4 5
excellent!
x 10
add to favorites
launch autoscroll
font size
0
reset
how to read this tab
guitar tuner
Tab Pro tools
  • play this tab
  • loop segment
  • change instrument
  • show fretboard
  • metronome
×
Best way to learn
"Yesterdays Feelings"
Autoscroll
slow
fast
+/-
esc
set tempo
stop
Contributor
Difficulty
////////////////////////////////////////////////////////
Yesterday's Feelings-----
\\\\\\\\\\\\\\\\\\\\\\\\\\\\\\\\\\\\\\\\\\\\\\\\\\\\\\\\

Song: Yesterday's Feelings
Band: The Used
Album: In Love and Death
Tabbed By: Olin C. 
Email: olinclark@chartermi.net

Tuning: Standard

e|---------------------------------------2------|
B|-7---7-5-7-7-7---7-5-7-7-7---7-5-7-7---3------|
G|---0-----------0-----------0-----------2------|
D|-0-----0-----0-----0-----0-----0-------0------|
A|----------------------------------------------|
E|----------------------------------------------|

e|-------------------------------------------------------------|
B|-7---7-5-7-7-7---7-5-7-7-7---7-5-7-7-7---7-5-7-7-7---7-5-7-7-|
G|---0-----------0-----------0-----------0-----------0---------|
D|-0-----0-----0-----0-----0-----0-----0-----0-----0-----0-----|
A|-------------------------------------------------------------|
E|-------------------------------------------------------------|

e|-----------------------------------------|
B|-7---7-5-7-7-7---7-5-7-7-7---7-5-7-7-----|
G|---0-----------0-----------0-------------|
D|-0-----------0-----------0-----0---------|
A|-----------------------------------------|
E|-----------------------------------------|
   G			A			  Bmin			A
e|-3---3--3-3-3--5---5--5-5-5--7---7--7-7-7--5---5--5-5-5------|
B|-3---3--3-3-3--5---5--5-5-5--7---7--7-7-7--5---5--5-5-5------|
G|-4---4--4-4-4--6---6--6-6-6--7---7--7-7-7--6---6--6-6-6------|
D|-5---5--5-5-5--7---7--7-7-7--9---9--9-9-9--7---7--7-7-7------|x4
A|-5---5--5-5-5--7---7--7-7-7--9---9--9-9-9--7---7--7-7-7------|
E|-3---3--3-3-3--5---5--5-5-5--7---7--7-7-7--5---5--5-5-5------|

then
  G
e|-3-|
B|-3-|
G|-4-|
D|-5-|
A|-5-|
E|-3-|

e|-------------------------------------------------------------|
B|-7---7-5-7-7-7---7-5-7-7-7---7-5-7-7-7---7-5-7-7-7---7-5-7-7-|
G|---0-----------0-----------0-----------0-----------0---------|
D|-0-----0-----0-----0-----0-----0-----0-----0-----0-----0-----|
A|-------------------------------------------------------------|
E|-------------------------------------------------------------|

e|-------------------------------------------------|
B|-7---7-5-7-7-7---7-5-7-7-7---7-5-7-7-7---7-5-7-7-|
G|---0-----------0-----------0-----------0---------|
D|-0-----------0-----------0-----0-----0-----0-----|
A|-------------------------------------------------|
E|-------------------------------------------------|
   G                 A             Bmin		A
e|-3---3--3-3-3--5---5--5-5-5--7---7--7-7-7--5---5--5-5-5------|
B|-3---3--3-3-3--5---5--5-5-5--7---7--7-7-7--5---5--5-5-5------|
G|-4---4--4-4-4--6---6--6-6-6--7---7--7-7-7--6---6--6-6-6------|
D|-5---5--5-5-5--7---7--7-7-7--9---9--9-9-9--7---7--7-7-7------|x4
A|-5---5--5-5-5--7---7--7-7-7--9---9--9-9-9--7---7--7-7-7------|
E|-3---3--3-3-3--5---5--5-5-5--7---7--7-7-7--5---5--5-5-5------|

  G				 A
e|-3---3--3-3-3--5---5--5-5-5-|
B|-3---3--3-3-3--5---5--5-5-5-|
G|-4---4--4-4-4--6---6--5-6-5-|
D|-5---5--5-5-5--7---7--7-7-7-|
A|-5---5--5-5-5--7---7--7-7-7-|
E|-3---3--3-3-3--5---5--5-5-5-|

 F.....
e|-1---1--1-1-1-|
B|-1---1--1-1-1-|
G|-2---2--2-2-2-|
D|-3---3--3-3-3-|x6
A|-3---3--3-3-3-|
E|-1---1--1-1-1-|

  F
e|-1-|
B|-1-|
G|-2-|
D|-3-|
A|-3-|
E|-1-|

e|---------------------------------------2------|
B|-7---7-5-7-7-7---7-5-7-7-7---7-5-7-7---3------|
G|---0-----------0-----------0-----------2------|
D|-0-----0-----0-----0-----0-----0-------0------|
A|----------------------------------------------|
E|----------------------------------------------|

   G             A             Bmin          A
e|-3---3--3-3-3--5---5--5-5-5--7---7--7-7-7--5---5--5-5-5------|
B|-3---3--3-3-3--5---5--5-5-5--7---7--7-7-7--5---5--5-5-5------|
G|-4---4--4-4-4--6---6--6-6-6--7---7--7-7-7--6---6--6-6-6------|
D|-5---5--5-5-5--7---7--7-7-7--9---9--9-9-9--7---7--7-7-7------|x5
A|-5---5--5-5-5--7---7--7-7-7--9---9--9-9-9--7---7--7-7-7------|
E|-3---3--3-3-3--5---5--5-5-5--7---7--7-7-7--5---5--5-5-5------|

   G             A
e|-3---3--3-3-3--5---5--5-5-5-|
B|-3---3--3-3-3--5---5--5-5-5-|
G|-4---4--4-4-4--6---6--5-6-5-|
D|-5---5--5-5-5--7---7--7-7-7-|
A|-5---5--5-5-5--7---7--7-7-7-|
E|-3---3--3-3-3--5---5--5-5-5-|

F....
e|-1---1--1-1-1-|
B|-1---1--1-1-1-|
G|-2---2--2-2-2-|
D|-3---3--3-3-3-|x6
A|-3---3--3-3-3-|
E|-1---1--1-1-1-|

End on
 F
e|-1-|
B|-1-|
G|-2-|
D|-3-|
A|-3-|
E|-1-|

| /  slide up
| \  slide down
| h  hammer-on
| p  pull-off
| ~  vibrato
| +  harmonic
| x  Mute note
comments
print report bad tab
3 comments total.
0 reply
fenderbender111 wrote on May 23 2007, 06:58 pm

amazing tab. brilliant.

0 reply
laughcrylivedie wrote on June 10 2007, 04:23 pm

bahaha.
I'm not sure why you commented yourself.
But chyes, it is quite brilliant.
[:

0 reply
Ruenis wrote on January 21 2008, 06:25 pm

its a cool song i thoughted it would be harder

I want to post or [tab]
guest
You may want to rate the tab now too:
select rating
Please do not post tabs as comments. Select "correction" instead!