Oops, an error
Loading. Please wait.

Zero Mechanism Tab

536 views 1 this week
no commentswrite comment
1 2 3 4 5
please rate
add to favorites
launch autoscroll
font size
0
reset
how to read this tab
guitar tuner
Tab Pro tools
  • play this tab
  • loop segment
  • change instrument
  • show fretboard
  • metronome
×
Best way to learn
"Zero Mechanism"
Autoscroll
slow
fast
+/-
esc
set tempo
stop
Contributor
The Used
Zero Mechanism

Intro
e|-------------------------------|
B|-------------------------------|
G|--6666666-7777-6666666-77777---| ECT...
D|--xxxxxxx-xxxx-xxxxxxx-xxxxx---|
A|--4444444-5555-4444444-55555---|
E|-------------------------------|

Verse Pick these two chords to the beat
e|----------|
B|----------|
G|--6---7---|
D|--x---x---|
A|--4---5---|
E|----------|

Chorus

e|------------------------------|
B|------------------------------|
G|--66666-9999-13-13-13-13-13---|
D|--xxxxx-xxxx--x--x--x--x--x---|
A|--44444-7777-11-11-11-11-11---|
E|------------------------------|

Post-Chorus
e|----------------------------------------------|
B|----------------------------------------------|
G|--666-888-999-11-9-8--------666--8^-444-8^~---|
D|--xxx-xxx-xxx--x-x-x--then--xxx-----xxx-------|
A|--444-666-777--9-7-6--------444-----222-------|
E|----------------------------------------------|

Verse then go into

Bridge Pick these two chords with popping in Open E and B's ....start soft then start 
harder

e|----------|
B|----------|
G|--6---7---|
D|--x---x---|
A|--4---5---|
E|----------|

Then..

e|----------------------------|
B|----------------------------|
G|--13-13-13-13-14-14-14-14---|
D|---x--x--x--x--x--x--x--x---|
A|--11-11-11-11-12-12-12-12---|
E|----------------------------|

Chorus

then Intro but heavier

End with

e|----------------|
B|----------------|
G|--14-14-14-14---|
D|---x--x--x--x---| etc..
A|--12-12-12-12---|
E|----------------|
comments
We did not receive enough feedback on this tab! Please rate:
print report bad tab
1 2 3 4 5
I want to post or [tab]
guest
You may want to rate the tab now too:
select rating
Please do not post tabs as comments. Select "correction" instead!