Oops, an error
Loading. Please wait.

Bad Mood Tab

version 1
version 1

Whole song

13,536 views 15 this week
6 commentsread comments
1 2 3 4 5
x 9
add to favorites
launch autoscroll
font size
0
reset
how to read this tab
guitar tuner
Autoscroll
slow
fast
+/-
esc
set tempo
stop
Help us to improve Ultimate-Guitar.com Take our survey!
×
-----------------------------------------------------------------------
                         Bad Mood - The Vaccines
-----------------------------------------------------------------------
Tabbed by: James Williams
E-mail: james.williams93@btinternet.com

This sounds best with two guitars, but it's also very fun to play with 
just one guitar. 
This is my first tab - I had a look for the tab for this, couldn't
find it so I decided to tab it out myself.
Constructive feedback is welcome.

Tuning: Standard

Verse:

e|--------------------------------------------------------------------|
B|--------------------------------------------------------------------|
G|-777777-----------------7--------777777----------999999-------------|
D|-777777-9-7-77---444444-7-7-99---777777-9-7-77---999999-9-7-77------|
A|-555555-9-7-77---444444-5-7-99---555555-9-7-77---777777-9-7-77------|
E|--------7-5-99---222222---5-77----------7-5-99----------7-5-99------|

e|--------------------------------------------------------------------|
B|--------------------------------------------------------------------|
G|-777777----------777777----------777777----------999999-------------|
D|-777777-9-7-77---777777-9-7-77---777777-9-7-77---999999-9-7-77------|
A|-555555-9-7-77---555555-9-7-77---555555-9-7-77---777777-9-7-77------|
E|--------7-5-99----------7-5-99----------7-5-99----------7-5-99------|

e|---------------------------------|
B|---------------------------------|    NB: Guitar 1 playing just a
G|-777777-----------------7--------|    note of each chord sounds good
D|-777777-9-7-77---444444-7-7-99---|    over the top of this
A|-555555-9-7-77---444444-5-7-99---|    
E|--------7-5-99---222222---5-77---|

Bend Lick:

Guitar 1:

e|-----------------------------------------------------------------------|
B|--------------------------------------7--7--10--12---------------------|
G|-11b-------10b--------9-8----------------------------------------------|
D|-----------------------------9-----------------------------------------|
A|-----------------------------9-(x12)-----------------------------------|
E|-----------------------------7-----------------------------------------|

Guitar 2:

e|-----------------------------------------------------------------------|
B|-----------------------------------------------------------------------|
G|-7--7-7----------------------------------------------------------------|
D|-7--7-7--7--7-7--9-----------------------------------------------------|
A|-5--5-5--7--7-7--9-(x16)-----------------------------------------------|
E|---------5--5-5--7-----------------------------------------------------|

Bridge:

e|-----------------------------------------------------------------------|
B|-----------------------------------------------------------------------|
G|-----------------------------------------------------------------------|
D|-99999999--77777777--99999999--77777777--99999999--77777777--99999999--|
A|-99999999--77777777--99999999--77777777--99999999--77777777--99999999--|
E|-77777777--55555555--77777777--55555555--77777777--55555555--77777777--|

e|----------|
B|----------|
G|----------|
D|-77777777-|
A|-77777777-|
E|-55555555-|

Solo:

e|-11--------11-------------11br--------------11br---------------|
B|------10-----------------------10-12-------------10-12----12---|
G|--------------11---------------------11----------------11------|
D|------------------14-13-----------------14---------------------|
A|---------------------------------------------------------------|
E|---------------------------------------------------------------|

e|----------17----------------17---------------------------------|
B|-14----14----14----14----14----14-----16-----------------------|
G|----14----------14----14----------14------11--14--16-----------|
D|---------------------------------------------------------------|
A|---------------------------------------------------------------|
E|---------------------------------------------------------------|

End Lick:

e|---------------------------------------------------------------|
B|------12--------------------------------------12---------------|
G|-11b-----11---9---------------------------11b----11--9---------|
D|------------------4---7---4---2---1----------------------4---7-|
A|--------------------------------------4------------------------|
E|---------------------------------------------------------------|

e|----------17----------------17---------------------------------|
B|-14----14----14----14----14----14-----16-----------------------|
G|----14----------14----14----------14------11--14--16-----------|
D|---------------------------------------------------------------|
A|---------------------------------------------------------------|
E|---------------------------------------------------------------|

Guitar 2 can play the same chords as in the
bridge section (listen for the timing)

Outro:

e|---------------|
B|---------------|
G|-777777--------|
D|-777777-9-7-99-|
A|-555555-9-7-99-|
E|--------7-5-77-|

Order of parts:

Verse
Bend Lick
Verse
Bend Lick
Bridge
Solo
Bend Lick
Verse
Bend Lick
End Lick
Outro


************************************

| /   slide up
| \   slide down
| h   hammer-on
| p   pull-off
| ~   vibrato
| +   harmonic
| x   Mute note
| b   Bend
| pb  Pre-bend
| br  Bend release
| pbr Pre-bend release
| brb Bend release bend

************************************
Suggest correction
comments
print report bad tab
6 comments total. Showing first comments.
+1 reply
kieran.berntsen 38 Apr 16, 2013 03:06 PM

I think the verse should go
e|--------- ---------
B|--------- ---------
G|77777---- & 444447---
D|777779799 444447799
A|555559799 222225799
E|-----7577 ------577

0 reply
CarbonateB 10 Apr 30, 2013 12:45 PM

true for the first part Kieran but not the second.

------------
------------
------7-----
44444-7-7/99
44444-5-7/99
22222---5/77

Please correct.

Thanks

0 reply
CarbonateB 10 Apr 30, 2013 12:51 PM

And it's


e|-----------------------------------------------------------------------|
B|--------------------------------------7--7--10--12---------------------|
G|-11b-------10b--------9-8----------------------------------------------|
D|-----------------------------9-----------------------------------------|
A|-----------------------------9-(x12)-----------------------------------|
E|-----------------------------7-----------------------------------------|

guest
You may want to rate the tab now too:
select rating
Wanna post a correction for this tab? Suggest correction