Oops, an error
Loading. Please wait.

Dream Lover intro tab

version 4
version 4

Whole song

520 views 3 this week
2 commentsread comments
1 2 3 4 5
x 3
add to favorites
×
Save as Personal and add changes to this tab that will be seen only by you. Learn more ›
×
You can save this tab as Personal to edit and correct it or add notes. All changes will be seen only by you. Learn more »
launch autoscroll
font size
0
reset
how to read this tab
guitar tuner
edit
Autoscroll
slow
fast
+/-
esc
set tempo
stop
Author
Difficulty
-------------------------------------------------------------------------------
                             DREAM LOVER - The Vaccines
-------------------------------------------------------------------------------
Tabbed by: razmzdude
E-mail: razmzdude@gmail.com

Tuning: Standard

Shoutout to @jameskerr8 and @NarutoJutsu, just wanted to combine your tabs so it sounded perfect.
Every two dots is an eighth note.

e|----------------|----------------|----------------|----------------|
B|----------------|----------------|----------------|----------------|
G|----------------|----------------|----------------|----------------|
D|----------------|----------------|----------------|----------------|
A|2---------2-5-7-|----------------|------------5---|----------------|
E|----------------|----------------|5-------------7-|----------------|

e|----------------|----------------|----------------|----------------|
B|----------------|----------------|----------------|----------------|
G|----------------|----------------|----------------|----------------|
D|----------------|----------------|----------------|----------------|
A|2---------2-5-7-|----------------|------------5---|--------7-9-5-7-|
E|----------------|----------------|5-------------7-|----------------|

**********************************************************************

            
            
Suggest correction
Creating personal tab
Creating personal tab
You can edit any tab online and save it as your Personal.

You can edit, replace or remove any tab part or add personal notes – all changes will be seen only by you.

Personal tabs can be accessed anytime from any device, even offline.
Learn more »
Give kudos to tab author, rate the tab!
1 2 3 4 5
comments
print report bad tab
2 comments total.
0 reply
sumsarcklaf 10 Sep 17, 2015 03:39 AM

Great! This is perfect to play along with

0 reply
abeabe 10 Sep 23, 2015 08:50 AM

finally its all in one tab, cheers :-)

guest
You may want to rate the tab now too:
select rating
Wanna post a correction for this tab? Suggest correction