Oops, an error
Loading. Please wait.

Family Friend chords

version 2
version 2

Whole song

22,263 views 63 this week
2 commentsread comments
1 2 3 4 5
x 13
add to favorites
×
Save as Personal and add changes to this tab that will be seen only by you. Learn more ›
×
You can save this tab as Personal to edit and correct it or add notes. All changes will be seen only by you. Learn more »
launch autoscroll
font size
0
reset
transpose
0
reset
display chords
guitar tuner
edit
Autoscroll
slow
fast
+/-
esc
set tempo
stop
Strumming
There is no strumming pattern for this song yet. and get +5 IQ
Tabbed by: green vaccines
Email: luke95_lfc@hotmail.co.uk

Tuning: Standard
Capo 5

[Intro]   
C  F    (x2)

[Verse]                                                                                     
C                               F             G
They've all got their opinions but then what do they know
         C                       F           G
If you can't go back, where the hell do you go?
       C                      F         G
Does everybody really feel as high as a kite?
       C                         F            G
Well I don't really know if they do but they might

[Chorus]                                            (keep playing part below throughout the Chorus)
e|--0~------------------|-----0---0---0---0--0---0---0---0-----------------|
B|-------1~----5~--1--0-|---1---1---1---1---1--1---1---1-------------------|
G|----------------------|--------------------------------------------------|
D|----------------------|--------------------------------------------------|
A|----------------------|--------------------------------------------------|
E|----------------------|--------------------------------------------------|
                                                                                         
                                         You wanna......
(Play intro x2 after 1st chorus, after the second chorus carry on because the 3rd chorus 
is straight after)

[Bridge]
F
Half baked girl
         C
Hey, I'm hardly surprised
F                   C
Snake eyes disguise everybody's lies
                                                         F                   C
                 F                   C
Faded nail marks on pale thighs and an awkward secret that someone denies
               F                           C
And now you're trying to get yourself back in
           F                           C
And you’re trying to get yourself back in
        G
Come on in
        G
Come on in   oooohhhh!!
       C                        F            G
You wanna get young but you're just getting older
        C                         F           G
and you had a fun summer but it's suddenly colder

       C                           F              G
If you want a bit of love put your head on my shoulder
It's cool    C, F, G

(repeat chorus and gradually get faster, then as you come near the end and get slower 
end on C

(At the end after the C I just like to strum upwards, because it is close to what they do 
on the song)
e|--0----------------------------------------------------------------------|
B|---0---------------------------------------------------------------------|
G|----0--------------------------------------------------------------------|
D|-----0-------------------------------------------------------------------|
A|------0------------------------------------------------------------------|
E|-------0-----------------------------------------------------------------|


(Freddie: lead guitar (no capo))

[Intro]
F C

[Verse]
        F                               Bb           C
They've all got their opinions but then what do they know
       F                        Bb          C
If you can't go back, where the hell do you go?
     F                        Bb        C
Does everybody really feel as high as a kite?
       F                         Bb          C
Well I don't really know if they do but they might

[Instrumental]
F C

[Chorus]
F, Bb, C

[Bridge]
Bb
Half baked girl
         F
Hey, I'm hardly surprised
Bb                  F
Snake eyes disguise everybody's lies
                                       Bb                  F
Faded nail marks on pale thighs and an awkward secret that someone denies
               Bb                          F
And now you're trying to get yourself back in
                                      (palm mute, and gradually get louder)
           Bb                          F
And you’re trying to get yourself back in
             C
so, Come on in
        C
Come on in   oooohhhh!!

(Repeat chorus until end, start to pick up speed)

(When the singing stops and it’s just instruments tremolo this)
e|------x------------------------------------------------------------------|
B|------x------------------------------------------------------------------|
G|------22-------------repeat until end------------------------------------|
D|------x------------------------------------------------------------------|
A|------20-----------------------------------------------------------------|
E|------x------------------------------------------------------------------|

            
            
Suggest correction
Creating personal tab
Creating personal tab
You can edit any tab online and save it as your Personal.

You can edit, replace or remove any tab part or add personal notes – all changes will be seen only by you.

Personal tabs can be accessed anytime from any device, even offline.
Learn more »
comments
print report bad tab
2 comments total.
0 reply
rafiraihandarta 10 Sep 11, 2014 07:51 AM, edited on September 22 2014, 07:30 pm

sounds good

0 reply
tommy_ally 10 Oct 03, 2016 06:51 PM

I think the first part of the chorus should look like this:

e|-------------0--------|
B|-------1~--------1--0-|
G|----------------------|
D|--2-------------------|
A|----------------------|
E|----------------------|

guest
You may want to rate the tab now too:
select rating
Wanna post a correction for this tab? Suggest correction