Oops, an error
Loading. Please wait.

Norgaard Bass Tab

version 3
version 3

Whole song

580 views 1 this week
no commentswrite comment
1 2 3 4 5
2 more votes to show rating
add to favorites
launch autoscroll
font size
0
reset
guitar tuner
Autoscroll
slow
fast
+/-
esc
set tempo
stop
Help us to improve Ultimate-Guitar.com Take our survey!
×
Author
Difficulty
novice
-------------------------------------------------------------------------------
                                                NORGAARD - The Vaccines
-------------------------------------------------------------------------------


Tabbed By : Dan Hardy
Email: dhardy50@hotmail.co.uk

Tuning: Standard
Certain this is correct, listened to it many times, notice the verse's are different

Intro
G|------------------------------------------------------------------------------------------------|
D|------------------4-----------------------------------------------------------------------------|
A|----------------2-------------------------------------------------------------------------------|
E|------------------------------------------------------------------------------------------------|

Verse
G|------------------------------------------------------------------------------------------------|
D|-44444444---------------------------------------------------------------------------------------|
A|----------2222-4444-----------------------------------------------------------------------------|
E|------------------------------------------------------------------------------------------------|
x4

Chorus
G|------------------------------------------------------------------------------------------------|
D|---------------------------------------44444444-------------------------------------------------|
A|----------2222-4444----------2222-4444----------2222-4444----------2-2-4444---------44444444----|
E|-22222222----------22222222------------------------------22222222----------2-2-2-2--------------|

Verse
G|------------------------------------------------------------------------------------------------|
D|---------------------------------------44444444-------------------------------------------------|
A|----------2222-4444----------2222-4444----------2222-4444----------2222-4444--------------------|
E|-22222222----------22222222-------------------------------22222222------------------------------|

Chorus
G|------------------------------------------------------------------------------------------------|
D|-44444444------------------------------44444444-------------------------------------------------|
A|----------2222-4444----------2222-4444----------2222-4444----------2-2-4444---------44444444----|
E|--------------------22222222------------------------------22222222----------2-2-2-2-------------|

Verse
G|------------------------------------------------------------------------------------------------|
D|---------------------------------------44444444-------------------------------------------------|
A|----------2222-4444----------2222-4444----------2222-4444---------------------------------------|
E|-22222222------------22222222-----------------------------22222222------------------------------|

Break
G|------------------------------------------------------------------------------------------------|
D|------------------------------------------------------------------------------------------------|
A|------2--4------2--4------2--4------2-2-444-----------------------------------------------------|
E|-2---------2---------2---------2----------------------------------------------------------------|

Chorus
G|------------------------------------------------------------------------------------------------|
D|-44444444------------------------------44444444-------------------------------------------------|
A|----------2222-4444----------2222-4444----------2222-4444----------2-2-4444---------------------|
E|--------------------22222222------------------------------22222222------------------------------|

Outro
G|------------------------------------------------------------------------------------------------|
D|------------------------------------------------------------------------------------------------|
A|------------------------------------------------------------------------------------------------|
E|-22222222/1414141414141414\22222222x2-2-2-2-2-2-222---------------------------------------------|



| /  slide up
| \  slide down
| h  hammer-on
| p  pull-off
| ~  vibrato
| +  harmonic
| x  Mute note
===============================================================================
Suggest correction
Give kudos to tab author, rate the tab!
1 2 3 4 5
comments
print report bad tab
guest
You may want to rate the tab now too:
select rating
Wanna post a correction for this tab? Suggest correction