Oops, an error
Loading. Please wait.

Tuck And Roll bass

version 1
version 1

Whole song

598 views 1 this week
no commentswrite comment
1 2 3 4 5
2 more votes to show rating
add to favorites
×
Save as Personal and add changes to this tab that will be seen only by you. Learn more ›
×
You can save this tab as Personal to edit and correct it or add notes. All changes will be seen only by you. Learn more »
launch autoscroll
font size
0
reset
guitar tuner
edit
Autoscroll
slow
fast
+/-
esc
set tempo
stop
Author
Difficulty
Hey guys, this is my first tab. Now I know it's not completely accurate, but its sounds
close enough for a cover of the song. The main bass riff should be right though.
The accompanying guitar part is here: 
http://tabs.ultimate-guitar.com/t/the_vaccines/tuck_and_roll_crd.htm
(NOTE: It says to capo the 5th fret. DON'T. You should capo the 6th Fret instead)
And for timing or rhythm just listen to the song.
Tuning: Standard EADG
Alright, here it is:

G-----------------------------|
D-----------------------------|
A-----------------------------|
E-----3-3-3-5-5-5-7-7-7-5-5-5-|


G-----------------------|
D-----------------------|
A--------------------7--|
E-----3--3--3--3-7-10---| x2


G-----------------------------|
D-----------------------------|
A-----------------------------|
E-----3-3-3-5-5-5-7-7-7-5-5-5-|


G-----------------------|
D-----------------------|
A--------------------7--|
E-----3--3--3--3-7-10---| x2


G-----------------------------------|
D-----------------------------------|
A--------------------7--------------|
E-----3--3--3--3-7-10---3-3-3-55-77-| x4


G--------------------------|
D--------------------------|
A--------------------7-----|
E-----3--3--3--3-7-10- x10-|


G-----------------------------|
D-----------------------------|
A-----------------------------|
E-----3-3-3-5-5-5-7-7-7-5-5-5-|


G-----------------------|
D-----------------------|
A--------------------7--|
E-----3--3--3--3-7-10---| x2


G-----------------------------|
D-----------------------------|
A-----------------------------|
E-----3-3-3-5-5-5-7-7-7-5-5-5-|


G-----------------------|
D-----------------------|
A--------------------7--|
E-----3--3--3--3-7-10---| x2


G-----------------------------------|
D-----------------------------------|
A--------------------7--------------|
E-----3--3--3--3-7-10---3-3-3-55-77-| x4


G-----------------------------------------------------------------------------------------|
D-----------------------------------------------------------------------------------------|
A--------------------7-----------------7-----------------7-----------------7--------------|
E-----3--3--3--3-7-10---3--3--3--3-7-10---3--3--3--3-7-10---3--3--3--3-7-10---3-3-3-55-77-| x4


G-----------------------------------|
D-----------------------------------|
A--------------------7--------------|
E-----3--3--3--3-7-10---3-3-3-55-77-| x8


_____________________________________________________________________

            
            
Suggest correction
Creating personal tab
Creating personal tab
You can edit any tab online and save it as your Personal.

You can edit, replace or remove any tab part or add personal notes – all changes will be seen only by you.

Personal tabs can be accessed anytime from any device, even offline.
Learn more »
Give kudos to tab author, rate the tab!
1 2 3 4 5
comments
print report bad tab
guest
You may want to rate the tab now too:
select rating
Wanna post a correction for this tab? Suggest correction