Oops, an error
Loading. Please wait.

Under Your Thumb Chords

version 1
version 1

Whole song

8,643 views 24 this week
no commentswrite comment
1 2 3 4 5
excellent!
x 4
add to favorites
launch autoscroll
font size
0
reset
transpose
0
reset
- display chords -
guitar tuner
Tab Pro tools
  • play this tab
  • loop segment
  • change instrument
  • show fretboard
  • metronome
Autoscroll
slow
fast
+/-
esc
set tempo
stop
Difficulty
novice
One bar of bass and drums
into
Guitar 1
Intro
E|--------------------|
B|--------------------|
G|--------------------|
D|--------------------| REPEAT
A|--4-4-4-4-4-4-4-4-4-|
E|--------------------|

Verse 1
Repeat 4th Frent A string strumming then 2 chords.
E|------------------------------------------------------------------|
B|------------------------------------------------------------------|
G|-------------------------------------------------6----------------|
D|----------------------4--6-----------------------6----------------|
A|--4-4-4-4-4-4-4-4-4---4--6--4-4-4-4-4-4-4-4-4-4--4--4-4-4-4-4-4-4-|
E|----------------------2--4-----------------------4----------------|

E|----------------------------------------------|
B|----------------------------------------------|
G|----------------------------------------------|
D|---------------------4--6--4--6---------------|
A|--4-4-4-4-4-4-4-4-4--4--6--4--6--4-4-4-4-4-4-4|
E|---------------------2--4--2--4---------------|

CHORUS
E|--------------------|
B|--------------------|
G|--------6-----------|
D|--6--4--6-----------| X2
A|--4--2--4-----------|
E|--4--2--4-----------|

VERSE 2

E|----------------------------------------------|
B|----------------------------------------------|
G|----------------------------------------------|
D|---------------------4--6--4--6---------------|
A|--4-4-4-4-4-4-4-4-4--4--6--4--6--4-4-4-4-4-4-4|
E|---------------------2--4--2--4---------------|

CHORUS
E|--------------------|
B|--------------------|
G|--------6-----------|
D|--6--4--6-----------| X2
A|--4--2--4-----------|
E|--4--2--4-----------|

SOLO (CHORDS)
CHORUS
E|--------------------|
B|--------------------|
G|--------6-----------|
D|--4--6--6-----------| X2
A|--2--4--4-----------|
E|--2--4--4-----------|

E|--------------------|
B|--------------------|
G|--------6-----------|
D|--6--4--6-----------| 
A|--4--2--4-----------|
E|--4--2--4-----------|

BRIDGE
JUST SINGING NO CHORDS

CHORUS
E|--------------------|
B|--------------------|
G|--------6-----------|
D|--6--4--6-----------| X2 ON LAST CHORUS AND LAST LINE OF THE SONG, PLAY THE
A|--4--2--4-----------| LAST CHORD AS TRIPLETS AND FINISH ON THAT CHORD.
E|--4--2--4-----------|

comments
print report bad tab
I want to post or [tab]
guest
You may want to rate the tab now too:
select rating
Please do not post tabs as comments. Select "correction" instead!