Oops, an error
Loading. Please wait.

Weirdo Bass Tab

1,248 views 6 this week
1 commentread comment
1 2 3 4 5
accurate
x 5
add to favorites
launch autoscroll
font size
0
reset
guitar tuner
Tab Pro tools
  • play this tab
  • loop segment
  • change instrument
  • show fretboard
  • metronome
×
Best way to learn
"Weirdo"
Autoscroll
slow
fast
+/-
esc
set tempo
stop
Contributor
Difficulty
novice
-----------------------------------------------------------------------------
                             Weirdo - Vaccines
-----------------------------------------------------------------------------
Tabbed by: Will
E-mail: will_iam16.c@btinternet.com

Tuning: Standard

Verse

G|-----------------------------------------------------------------|
D|-----------------------------------------------------------------|
A|-----------------4-4-4-4-4-4-4-4-6-6-6-6-4-4-4-4-2-2-2-2-2-2-2-2-|
E|-2-2-2-2-2-2-2-2-------------------------------------------------|

Pre-Chorus

G|-----------------------------------------------------------------|
D|-----------------------------------------------------------------|
A|-4-(x16)-2-(x16)---------4-(x16)---------------------------------|
E|-------------------2-(x16)---------------------------------------|

Chorus

G|-----------------------------------------------------------------|
D|-----------------------------------------------------------------|
A|--------1-(x16)-2-(x8)-------------------------------------------|
E|-2-(x8)----------------------------------------------------------|

Post-Chorus

G|-------------------------------------------------------------------|
D|-------------------------------------------------------------------|
A|--------1-(x4)-2-(x4)----------------------------------------------|
E|-2-(x8)------------------------------------------------------------|
comments
print report bad tab
1 comment total.
0 reply
kitfre wrote on July 13 2015, 09:26 am

I was wondering if you could post the full order of this? As in like:
Verse
Pre-chorus
Verse
Post-chorus
Verse

And so on? I think I have it, but I am a beginner and am having a hard time. I think it goes like:

Verse
Pre-chorus
Chorus
Post-chorus

Verse
Pre-chorus
Chorus
Post-chorus
?
Verse
Break/random?
Chorus
Post-chorus

Chorus?
Post-chorus?

Obviously the question marks are where I am the least sure.

Any help would be much appreciated!!

I want to post or [tab]
guest
You may want to rate the tab now too:
select rating
Please do not post tabs as comments. Select "correction" instead!