Oops, an error
Loading. Please wait.

Wolf Pack Bass Tab

version 2
version 2

Whole song

838 views 1 this week
no commentswrite comment
1 2 3 4 5
please rate
add to favorites
launch autoscroll
font size
0
reset
guitar tuner
Autoscroll
slow
fast
+/-
esc
set tempo
stop
Help us to improve Ultimate-Guitar.com Take our survey!
×
Author
Difficulty
novice
-------------------------------------------------------------------------------
                             WOLF PACK - The Vaccines
-------------------------------------------------------------------------------
Tabbed by: Dan Hardy
E-mail: dhardy50@hotmail.co.uk

Tuning: Standard

Intro, keep playing this until chorus
G|---------------------------------------------------------------------------|
D|-3-3-3-3-3-3-3-3-3-3-3-3-3-3-3-3-3-3-3-3-3-3-3-3-3-3-3-3-3-3-3-3-3-3-3-3---|
A|---------------------------------------------------------------------------|
E|---------------------------------------------------------------------------|

Chorus, little bit hazy on this.. open to suggestions
G|---------------------------------------------------------------------------|
D|--------------5------------------------------------------------------------|
A|---3---3--1-1--5-3-0-------------------------------------------------------|
E|-1--1---1------------------------------------------------------------------|
x3

G|---------------------------------------------------------------------------|
D|---------------------------------------------------------------------------|
A|-----------------1-1-1-1-3-3-3-3-------------------------------------------|
E|-1-1-1-1-1-1-1-1-----------------------------------------------------------|
x5

G|---------------------------------------------------------------------------|
D|--------------5------------------------------------------------------------|
A|---3---3--1-1--5-3-0-------------------------------------------------------|
E|-1--1---1------------------------------------------------------------------|
x3


G|---------------------------------------------------------------------------|
D|---------------------------------------------------------------------------|
A|-----------------1-1-1-1-3-3-3-3-------------------------------------------|
E|-1-1-1-1-1-1-1-1-----------------------------------------------------------|
x9

G|---------------------------------------------------------------------------|
D|--------------5------------------------------------------------------------|
A|---3---3--1-1--5-3-0-------------------------------------------------------|
E|-1--1---1------------------------------------------------------------------|
x6

Outro
G|---------------------------------------------------------------------------|
D|-3-3-3-3-3-3-3-3-3-3--3-3-3-3-3-3-3-3-3-3----------------------------------|
A|---------------------------------------------------------------------------|
E|---------------------------------------------------------------------------|

The Chorus definitely does something funky, not easy to tab

| /  slide up
| \  slide down
| h  hammer-on
| p  pull-off
| ~  vibrato
| +  harmonic
| x  Mute note
===============================================================================
Suggest correction
Give kudos to tab author, rate the tab!
1 2 3 4 5
comments
print report bad tab
guest
You may want to rate the tab now too:
select rating
Please do not post tabs as comments. Select "correction" instead!