Oops, an error
Loading. Please wait.

Blam Blam Fever Chords

1,851 views 3 this week
1 commentread comment
1 2 3 4 5
please rate
add to favorites
launch autoscroll
font size
0
reset
transpose
0
reset
display chords
guitar tuner
Tab Pro tools
  • play this tab
  • loop segment
  • change instrument
  • show fretboard
  • metronome
×
Best way to learn
"Blam Blam Fever"
Autoscroll
slow
fast
+/-
esc
set tempo
stop
Contributor
-------------------------------------------------------------------------------
                             Blam Blam Fever - The Valentines
-------------------------------------------------------------------------------
Tabbed by: Bumcivilian

Play the chords for 4 beats each. Use barre chords (F at fret 8), and 
them in reggae style on the off-beat.

I'm not sure about all of the lyrics, so if you think they're wrong then they probably are.
Listen to the song to get any of the rhythm or timing. The chords positions over the lyrics
are general, listen to the song and it's easy to fit them in.

Intro:
e|-------------------------------------------------------|
B|-------------------------------------------------------|
G|-------------------------------------------------------|
D|-------------------------------------------------------|
A|-3-3-4-4-4-5-5----5-5-5-4-4-4-3-3--(x2)--3-3-3--5-5--7-|
E|-------------------------------------------------------|

    F                        Dm
Did you read the news? I'm a bit confused,
       F                       Dm
The gun fever is back, the gun fever!
F                       Dm
Rudeness and gun is the talk of this town,
       F                       Dm
The gun fever is back, the gun fever!

G
Everytime you .............., (no idea what the lyric is here)
     G
It's man shot dead or lookin' at war.
          F                F 
It's the fever, oh the gun fever!
    G
The simplest thing is blam blam blam,
G
What is this in our little island?
         F                  F 
It's the fever, oh the gun fever!

        F                        Dm
You can know a rude chap, by the way he set his cap, lord,
       F                       Dm
The gun fever is back, the gun fever!
     F                                 Dm
The rudie talk is seen, lord, I don't know what it mean,
         F                      Dm
The gun fever is back, the gun fever!

G
Everytime you ..............,
     G
It's man shot dead or lookin' at war.
          F                F 
It's the fever, oh the gun fever!
    G
The simplest thing is blam blam blam,
G
What is this in our little island?
         F                  F 
It's the fever, oh the gun fever!


Solo: G---G---F---F--- x2 with:

e|---------------------------------------------------------------------------|
B|---------------------------------------------------------------------------|
G|---------------------------------------------------------------------------|
D|-3--------4--------5-----3/5-3---------5---------3-------3---1/3-3---------|
A|--5-3-5-----5-3-5--------------5---------5-3-5-----5-3-5------------5-3----|
E|---------------------------------3---------------------------------------1-|
                                                                          x2

e|-----------------|
B|-----------------|
G|-----------------|
D|-----------------|
A|----------1---3--|
E|--1---5----------|

        F                        Dm
You can know a rude chap, by the way he set his cap, lord,
        F                      Dm
The gun fever is back, the gun fever!
     F                                 Dm
The rudie talk is seen, lord, I don't know what it mean,
         F                      Dm
The gun fever is back, the gun fever!


G
Everytime you .............,
     G
It's man shot dead or lookin' at war.
          F                F 
It's the fever, oh the gun fever!
    G
The simplest thing is blam blam blam,
G
What is this in our little island?
         F                   F 
It's the fever, oh, the gun fever!
F
Oh! The gun fever! (Repeat till fade)
comments
We did not receive enough feedback on this tab! Please rate:
print report bad tab
1 2 3 4 5
1 comment total.
0 reply
Bumcivilian wrote on July 4 2008, 01:58 pm

e|---------------------------------------------------------------------------|
B|---------------------------------------------------------------------------|
G|---------------------------------------------------------------------------|
D|-3--------4--------5-----3/5-3---------5---------3-------3---1/3-3---------|
A|--5-3-5-----5-3-5--------------5---------5-3-5-----5-3-5------------5-3----|
E|---------------------------------3---------------------------------------1-|
x2

The solo should be this, not like above. The solo isn't quite perfect but it sounds ok.

I want to post or [tab]
guest
You may want to rate the tab now too:
select rating
Please do not post tabs as comments. Select "correction" instead!