Oops, an error
Loading. Please wait.

All Night Tab

295 views 45 this week
no commentswrite comment
1 2 3 4 5
2 more votes to show rating
add to favorites
launch autoscroll
font size
0
reset
how to read this tab
guitar tuner
Autoscroll
slow
fast
+/-
esc
set tempo
stop
Help us to improve Ultimate-Guitar.com Take our survey!
×
Author
Difficulty
intermediate
[Intro]

e|----------------------------------------------------------------------------------------|
B|----------------------------------------------------------------------------------------|
G|-0---------0-----0------3-0-3-0-3-0-----------------0----0------3-0-3-0-3-0-------------|
D|---3-1---1----1-----1-1-------------3-1-1-3---1---1----1----1-1-------------3-1-1-3---1-|
A|-------3------------------------------------3---------------------------------------3---|
E|----------------------------------------------------------------------------------------|

[Interlude]

e|-----4---3---3-6-1--------------4---3---3-6-1-------------------------------------------|
B|-4-4----------------4-3-1---4-4----------------4-3-1------------------------------------|
G|----------------------------------------------------------------------------------------|
D|----------------------------------------------------------------------------------------|
A|----------------------------------------------------------------------------------------|
E|----------------------------------------------------------------------------------------|
Suggest correction
Give kudos to tab author, rate the tab!
1 2 3 4 5
comments
print report bad tab
guest
You may want to rate the tab now too:
select rating
Wanna post a correction for this tab? Suggest correction