Oops, an error
Loading. Please wait.

Coming Home chords

version 1
version 1

Whole song

6,292 views 36 this week
no commentswrite comment
1 2 3 4 5
x 9
add to favorites
×
Save as Personal and add changes to this tab that will be seen only by you. Learn more ›
×
You can save this tab as Personal to edit and correct it or add notes. All changes will be seen only by you. Learn more »
launch autoscroll
font size
0
reset
transpose
0
reset
simplify chords
display chords
guitar tuner
edit
Autoscroll
slow
fast
+/-
esc
set tempo
stop
Strumming
There is no strumming pattern for this song yet. and get +5 IQ
Loving this song of theirs

*************************************************************************************************************
RIFF IN PRE-CHORUS AND CHORDS TO BRIDGE BELONG TO http://profile.ultimate-guitar.com/AnnoyingXP/
*************************************************************************************************************
Capo 1  

   G  Gsus4/E  G/E  Gsus2/E
e|-3-----3------3------3----|
B|-3-----3------3------3----|
G|-0-----0------0------2----|
D|-0-----2------2------2----|
A|-2-----3------2------0----|
E|-3-----0------0------0----|

G Gsus4/E G/E Gsus2/E

[Verse]
                G                       Gsus4/E
Of course I get lonely, I guess I ain't old me
                 G/E                                        Gsus2/E
I'm sick and I'm tired of getting used up and tossed to the side
              G                             Gsus4/E
I hate this hotel room, for walls that stop me from getting you
                G/E                            Gsus2/E
I'm hoping that some day, we can runaway for a little

e|-------------------------------------------------------------|
B|--10-----10-------12------12--------5-----5-------5-----5----|
G|-------------------------------------------------------------|
D|-------------------------------------------------------------|
A|--9----9----9-----10---10----10-----3---3---3-----3---3---3--|
E|-------------------------------------------------------------|

e|-----------------------------------------------------------|
B|--10-----10-------12------12--------5-----5-------5p3---3--|
G|------------------------------------------------------0----|
D|-----------------------------------------------------------|
A|--9----9----9-----10---10----10-----3---3---3-----3--------|
E|-----------------------------------------------------------|

e|---------------------------------------------------------------------|
B|--10-----10-------12------12--------5-----5-------5-----5-------10~--|
G|---------------------------------------------------------------------|
D|---------------------------------------------------------------------|
A|--9----9----9-----10---10----10-----3---3---3-----3---3---3-----9~---|
E|---------------------------------------------------------------------| Throughout Pre-Chorus

[Pre-Chorus]
But I promise I'll be back soon

And a voice through a phone ain't the same it's true

Give me time, and I'll give you every drop of mine

[Chorus]
G                                           Gsus4/E
Keep the car running, and keep those sheets warm
                                        G/E
Cause baby there's nothing, that I want more,
                                              Gsus2/E
To hold you right beside me, the way I always do

But I gotta tell you something, I miss you but
G         D7                         G  Gsus4/E
You never know when I'm coming home (home x12)

[Pre-Chorus]
                 G                          Gsus4/E
I know it's been six weeks, but how could I ever forget your old face
                 G/E                                              Gsus2/E
And I find it so cute when you think there's ever been anyone but you

e|-------------------------------------------------------------|
B|--10-----10-------12------12--------5-----5-------5-----5----|
G|-------------------------------------------------------------|
D|-------------------------------------------------------------|
A|--9----9----9-----10---10----10-----3---3---3-----3---3---3--|
E|-------------------------------------------------------------|

e|-----------------------------------------------------------|
B|--10-----10-------12------12--------5-----5-------5p3---3--|
G|------------------------------------------------------0----|
D|-----------------------------------------------------------|
A|--9----9----9-----10---10----10-----3---3---3-----3--------|
E|-----------------------------------------------------------|

e|---------------------------------------------------------------------|
B|--10-----10-------12------12--------5-----5-------5-----5-------10~--|
G|---------------------------------------------------------------------|
D|---------------------------------------------------------------------|
A|--9----9----9-----10---10----10-----3---3---3-----3---3---3-----9~---|
E|---------------------------------------------------------------------| Throughout Pre-Chorus

I know I said I promise I'll be back soon

Just come move my way so we can get through

But give me time, and I'll give you every drop of mine

[Chorus]
G                                           Gsus4/E
Keep the car running, and keep those sheets warm
                                        G/E
Cause baby there's nothing, that I want more,
                                              Gsus2/E
To hold you right beside me, the way I always do

But I gotta tell you something, I miss you but
G         D7                         G
You never know when I'm coming home (home x12)
                Gsus4/E               G/E                   Gsus2/E
When I'm coming home, when I'm coming home, when I'm coming home

[Bridge]
Bm                              Am7                          Bm
Tomorrow feels  like a lifetime away, so why don't you stay right here
                                G, Gsus4/E, G/e
Cause my arms were made for you tonight
    Gsus2/E          D7
Lie in, sink into my skin

[Chorus]
G                                           Gsus4/E
Keep the car running, and keep those sheets warm
                                        G/E
Cause baby there's nothing, that I want more,
                                                Gsus2/E
Then hold you right beside me, the way I always do
                                           D7
But I gotta tell you something, I miss you but

You never know
G                                           Gsus4/E
Keep the car running, and keep those sheets warm
                                        G/E
Cause baby there's nothing, that I want more,
                                              Gsus2/E
To hold you right beside me, the way I always do

But I gotta tell you something, I miss you but
G         D7                         G
You never know when I'm coming home (home x12)
                Gsus4/E               G/E                   Gsus2/E
When I'm coming home, when I'm coming home, when I'm coming home

            
            
Suggest correction
Creating personal tab
Creating personal tab
You can edit any tab online and save it as your Personal.

You can edit, replace or remove any tab part or add personal notes – all changes will be seen only by you.

Personal tabs can be accessed anytime from any device, even offline.
Learn more »
comments
print report bad tab
guest
You may want to rate the tab now too:
select rating
Wanna post a correction for this tab? Suggest correction