Oops, an error
Loading. Please wait.

Middle Of The Night chords

version 1
version 1

Whole song

  • The Vamps and Martin Jensen – Middle Of The Nigh... Show more
11,134 views 348 this week
no commentswrite comment
1 2 3 4 5
x 4
add to favorites
×
Save as Personal and add changes to this tab that will be seen only by you. Learn more ›
×
You can save this tab as Personal to edit and correct it or add notes. All changes will be seen only by you. Learn more »
launch autoscroll
font size
0
reset
transpose
0
reset
display chords
guitar tuner
edit
Autoscroll
slow
fast
+/-
esc
set tempo
stop
Strumming
There is no strumming pattern for this song yet. and get +5 IQ
[Intro]
G Bm A A

e|-5-7-10-7----------------------------------|
B|------------5-7-10-7---5-7-10-7---5-7-10-7-|
G|-------------------------------------------|
D|-------------------------------------------|
A|-------------------------------------------|
E|-------------------------------------------|


[Verse 1]
  G                         Bm
I keep coming back to that moment
            A
Where it all fell apart
   G                    Bm
So I try and drink my emotions
            A
'Til I can't feel my heart


[Pre-Chorus]
    G
And I don't understand
     Bm                   A
How you slipped through my hands
    G
And I do what I can
Bm                      A
  To get you out of my head


[Chorus]
G                            Bm
  So when I call you in the middle of the night
          A
And I'm choking on the words cause I miss you
G                        Bm
 Baby don't tell me I'm out of time
       A
I got so much of my loving to give you
                           
In the middle of the night
  G          Bm         A          A
e|-5-7-10-7----------------------------------|
B|------------5-7-10-7---5-7-10-7---5-7-10-7-|
G|-------------------------------------------|
D|-------------------------------------------|
A|-------------------------------------------|
E|-------------------------------------------|                          
In the middle of the night, I need ya
  G          Bm         A          A
e|-5-7-10-7----------------------------------|
B|------------5-7-10-7---5-7-10-7---5-7-10-7-|
G|-------------------------------------------|
D|-------------------------------------------|
A|-------------------------------------------|
E|-------------------------------------------|
In the middle of the night


[Verse 2]
G                      Bm
I've got no good explanation
         A
For what I put you through
 G                Bm
Managing my expectations
         A
Is what I never do


[Pre-Chorus]
          G
Yeah, and I don't understand
     Bm                   A
How you slipped through my hands
          G
And I'm trying all I can
Bm                A
  To forget you again


[Chorus]
G                            Bm
  So when I call you in the middle of the night
          A
And I'm choking on the words cause I miss you
G                        Bm
 Baby don't tell me I'm out of time
       A
I got so much of my loving to give you
                           
In the middle of the night
  G          Bm         A          A
e|-5-7-10-7----------------------------------|
B|------------5-7-10-7---5-7-10-7---5-7-10-7-|
G|-------------------------------------------|
D|-------------------------------------------|
A|-------------------------------------------|
E|-------------------------------------------|                           
In the middle of the night, I need ya
  G          Bm         A          A
e|-5-7-10-7----------------------------------|
B|------------5-7-10-7---5-7-10-7---5-7-10-7-|
G|-------------------------------------------|
D|-------------------------------------------|
A|-------------------------------------------|
E|-------------------------------------------|

[Bridge]
G                            Bm
  So when I call you in the middle of the night
          A
And I'm choking on the words cause I miss you
G                        Bm
 Baby don't tell me I'm out of time
       A                               N.C
I got so much of my loving to give you


[Outro]
In the middle of the night
  G          Bm         A          A
e|-5-7-10-7----------------------------------|
B|------------5-7-10-7---5-7-10-7---5-7-10-7-|
G|-------------------------------------------|
D|-------------------------------------------|
A|-------------------------------------------|
E|-------------------------------------------|                        
In the middle of the night,     I need ya
  G          Bm         A          A
e|-5-7-10-7----------------------------------|
B|------------5-7-10-7---5-7-10-7---5-7-10-7-|
G|-------------------------------------------|
D|-------------------------------------------|
A|-------------------------------------------|
E|-------------------------------------------|
In the middle of the night
  G          Bm         A          A
e|-5-7-10-7----------------------------------|
B|------------5-7-10-7---5-7-10-7---5-7-10-7-|
G|-------------------------------------------|
D|-------------------------------------------|
A|-------------------------------------------|
E|-------------------------------------------|
In the middle of the night, I need ya
  G          Bm         A          A
e|-5-7-10-7----------------------------------|
B|------------5-7-10-7---5-7-10-7---5-7-10-7-|
G|-------------------------------------------|
D|-------------------------------------------|
A|-------------------------------------------|
E|-------------------------------------------|










            
            
Suggest correction
Creating personal tab
Creating personal tab
You can edit any tab online and save it as your Personal.

You can edit, replace or remove any tab part or add personal notes – all changes will be seen only by you.

Personal tabs can be accessed anytime from any device, even offline.
Learn more »
comments
print report bad tab
guest
You may want to rate the tab now too:
select rating
Wanna post a correction for this tab? Suggest correction