Oops, an error
Loading. Please wait.

Shout About It tab

version 1
version 1

Whole song

  • The line above the tabs has the chord shape where ... Show more
2,351 views 24 this week
3 commentsread comments
1 2 3 4 5
x 4
add to favorites
×
Save as Personal and add changes to this tab that will be seen only by you. Learn more ›
×
You can save this tab as Personal to edit and correct it or add notes. All changes will be seen only by you. Learn more »
launch autoscroll
font size
0
reset
how to read this tab
guitar tuner
edit
Autoscroll
slow
fast
+/-
esc
set tempo
stop
Author
Difficulty
intermediate
-------------------------------------------------------------------------------
                             Shout About It - The Vamps
-------------------------------------------------------------------------------
Tabbed by: bethdacupcake
E-mail: bethdacupcake@gmail.com
Twitter: @Beth1942

Tuning: Standard

There don't seem to be any tabs for this song yet, so I thought I would give it a try :) Feel free to 
correct it as it's one of my first tabs!


[INTRO]
e|---------------------------------------------------------------------------|
B|------0---0------0-----------3---0-------0-----------0---1-------1---------|
G|------0---0------0---0-------2---0-------0---0-------0---0-----------0-----|
D|------0---0------0-----------0---0-------0-----------2---2---2-------------|
A|---------------------------------------------------------------------------|
E|--3----------3-----------2-----------3-----------0-------------------------|

e|---------------------------------------------------------------------------|
B|------0---0-------0--------------------------------------------------------|
G|------0---0-------0---0----------------------------------------------------|
D|------0---0-------0--------------------------------------------------------|
A|---------------------------------------------------------------------------|
E|--3-----------3------------------------------------------------------------|



[VERSE 1]
e|---------------------------------------------------------------------------|
B|------0---0------0-----------3---0-------0-----------0---1-------1---------|
G|------0---0------0---0-------2---0-------0---0-------0---0-----------0-----|
D|------0---0------0-----------0---0-------0-----------2---2---2-------------|
A|---------------------------------------------------------------------------|
E|--3----------3-----------2-----------3-----------0-------------------------|
  If you want words to put your mind at rest tonight, come and shout about it

e|---------------------------------------------------------------------------|
B|------0---0-------0--------------------------------------------------------|
G|------0---0-------0---0----------------------------------------------------|
D|------0---0-------0--------------------------------------------------------|
A|---------------------------------------------------------------------------|
E|--3-----------3------------------------------------------------------------|

e|---------------------------------------------------------------------------|
B|------0---0------0-----------3---0-------0-----------0---1-------1---------|
G|------0---0------0---0-------2---0-------0---0-------0---0-----------0-----|
D|------0---0------0-----------0---0-------0-----------2---2---2-------------|
A|---------------------------------------------------------------------------|
E|--3----------3-----------2-----------3-----------0-------------------------|
  We can talk for a hundred miles and drive, where you're less surrounded

e|---------------------------------------------------------------------------|
B|------0---0-------0--------------------------------------------------------|
G|------0---0-------0---0----------------------------------------------------|
D|------0---0-------0--------------------------------------------------------|
A|---------------------------------------------------------------------------|
E|--3-----------3------------------------------------------------------------|


[VERSE 2]
e|---------------------------------------------------------------------------|
B|------0---0------0-----------3---0-------0-----------0---1-------1---------|
G|------0---0------0---0-------2---0-------0---0-------0---0-----------0-----|
D|------0---0------0-----------0---0-------0-----------2---2---2-------------|
A|---------------------------------------------------------------------------|
E|--3----------3-----------2-----------3-----------0-------------------------|
  'Cause I can see that the candle you hold inside, has a cloud around it

e|---------------------------------------------------------------------------|
B|------0---0-------0--------------------------------------------------------|
G|------0---0-------0---0----------------------------------------------------|
D|------0---0-------0--------------------------------------------------------|
A|---------------------------------------------------------------------------|
E|--3-----------3------------------------------------------------------------|

e|---------------------------------------------------------------------------|
B|------0---0------0-----------3---0-------0-----------0---1-------1---------|
G|------0---0------0---0-------2---0-------0---0-------0---0-----------0-----|
D|------0---0------0-----------0---0-------0-----------2---2---2-------------|
A|---------------------------------------------------------------------------|
E|--3----------3-----------2-----------3-----------0-------------------------|
  How can a heart like yours be that high and dry, when it burns the brightest?

e|---------------------------------------------------------------------------|
B|------0---0-------0--------------------------------------------------------|
G|------0---0-------0---0----------------------------------------------------|
D|------0---0-------0--------------------------------------------------------|
A|---------------------------------------------------------------------------|
E|--3-----------3------------------------------------------------------------|


[CHORUS]
e|---------------------------------------------------------------------------|
B|------1---1-------1-----------1---1-------1-----------0---0-------0--------|
G|------2---2-------2---2-------0---0-------0---0-------0---0-------0---0----|
D|------2---2-------2-----------2---2-------2-----------2---2-------2--------|
A|---------------------------------------------------------------------------|
E|--0-----------0-----------0-----------0-----------0-----------0------------|
I'm so sorry I can't stop myself from staring at you, when you're tired and blue, my dear

e|---------------------------------------------------------------------------|
B|------3---3-------3-----------1---1-------1-----------1---3-------3--------|
G|------4---4-------4---4-------2---2-------2---2-------0---2-----------2----|
D|------4---4-------4-----------2---2-------2-----------2---0---0------------|
A|---------------------------------------------------------------------------|
E|--2-----------2-----------0-----------0-----------0------------------------|
                   It's just any reason I get to be closer to you, ooh

e|---------------------------------------------------------------------------|
B|------1---3-------3-----------0---0-------0-----------1---3----------------|
G|------0---2-----------2-------0---0-------0---0-------0---2----------------|
D|------2---0---0---------------2---2-------2-----------2---0----------------|
A|---------------------------------------------------------------------------|
E|--0-----------------------0-----------0-----------0------------------------|
   I wanna shout about it, ooh                           I wanna shout about it

e|---------------------------------------------------------------------------|
B|------0---0-------0--------------------------------------------------------|
G|------0---0-------0---0----------------------------------------------------|
D|------0---0-------0--------------------------------------------------------|
A|---------------------------------------------------------------------------|
E|--3-----------3------------------------------------------------------------|




[VERSE 3]
e|---------------------------------------------------------------------------|
B|------0---0------0-----------3---0-------0-----------0---1-------1---------|
G|------0---0------0---0-------2---0-------0---0-------0---0-----------0-----|
D|------0---0------0-----------0---0-------0-----------2---2---2-------------|
A|---------------------------------------------------------------------------|
E|--3----------3-----------2-----------3-----------0-------------------------|
Beneath the window and the water that's in your eyes, that's where I know you're hiding

e|---------------------------------------------------------------------------|
B|------0---0-------0--------------------------------------------------------|
G|------0---0-------0---0----------------------------------------------------|
D|------0---0-------0--------------------------------------------------------|
A|---------------------------------------------------------------------------|
E|--3-----------3------------------------------------------------------------|

e|---------------------------------------------------------------------------|
B|------0---0------0-----------3---0-------0-----------0---1-------1---------|
G|------0---0------0---0-------2---0-------0---0-------0---0-----------0-----|
D|------0---0------0-----------0---0-------0-----------2---2---2-------------|
A|---------------------------------------------------------------------------|
E|--3----------3-----------2-----------3-----------0-------------------------|
 There's a smile that could light up a thousand lives, and you need reminding

e|---------------------------------------------------------------------------|
B|------0---0-------0--------------------------------------------------------|
G|------0---0-------0---0----------------------------------------------------|
D|------0---0-------0--------------------------------------------------------|
A|---------------------------------------------------------------------------|
E|--3-----------3------------------------------------------------------------|

[VERSE 4]
e|---------------------------------------------------------------------------|
B|------0---0------0-----------3---0-------0-----------0---1-------1---------|
G|------0---0------0---0-------2---0-------0---0-------0---0-----------0-----|
D|------0---0------0-----------0---0-------0-----------2---2---2-------------|
A|---------------------------------------------------------------------------|
E|--3----------3-----------2-----------3-----------0-------------------------|
 Tell me your fears, don't let 'em live a life alone, let me share the burden

e|---------------------------------------------------------------------------|
B|------0---0-------0--------------------------------------------------------|
G|------0---0-------0---0----------------------------------------------------|
D|------0---0-------0--------------------------------------------------------|
A|---------------------------------------------------------------------------|
E|--3-----------3------------------------------------------------------------|

e|---------------------------------------------------------------------------|
B|------0---0------0-----------3---0-------0-----------0---1-------1---------|
G|------0---0------0---0-------2---0-------0---0-------0---0-----------0-----|
D|------0---0------0-----------0---0-------0-----------2---2---2-------------|
A|---------------------------------------------------------------------------|
E|--3----------3-----------2-----------3-----------0-------------------------|
'Cause here beside you is a man you better know, know, know, who you can confide in

e|---------------------------------------------------------------------------|
B|------0---0-------0--------------------------------------------------------|
G|------0---0-------0---0----------------------------------------------------|
D|------0---0-------0--------------------------------------------------------|
A|---------------------------------------------------------------------------|
E|--3-----------3------------------------------------------------------------|


[CHORUS]
e|---------------------------------------------------------------------------|
B|------1---1-------1-----------1---1-------1-----------0---0-------0--------|
G|------2---2-------2---2-------0---0-------0---0-------0---0-------0---0----|
D|------2---2-------2-----------2---2-------2-----------2---2-------2--------|
A|---------------------------------------------------------------------------|
E|--0-----------0-----------0-----------0-----------0-----------0------------|
I'm so sorry I can't stop myself from staring at you, when you're tired and blue, my dear

e|---------------------------------------------------------------------------|
B|------3---3-------3-----------1---1-------1-----------1---3-------3--------|
G|------4---4-------4---4-------2---2-------2---2-------0---2-----------2----|
D|------4---4-------4-----------2---2-------2-----------2---0---0------------|
A|---------------------------------------------------------------------------|
E|--2-----------2-----------0-----------0-----------0------------------------|
                   It's just any reason I get to be closer to you, ooh

e|---------------------------------------------------------------------------|
B|------1---3-------3-----------0---0-------0-----------1---3----------------|
G|------0---2-----------2-------0---0-------0---0-------0---2----------------|
D|------2---0---0---------------2---2-------2-----------2---0----------------|
A|---------------------------------------------------------------------------|
E|--0-----------------------0-----------0-----------0------------------------|
   I wanna shout about it, ooh                           I wanna shout about it

e|---------------------------------------------------------------------------|
B|------0---0-------0--------------------------------------------------------|
G|------0---0-------0---0----------------------------------------------------|
D|------0---0-------0--------------------------------------------------------|
A|---------------------------------------------------------------------------|
E|--3-----------3------------------------------------------------------------|
               I'm not saying,
    
[BRIDGE]
e|---------------------------------------------------------------------------|
B|------1---1-------1-----------0---0-------0-----------3---3-------3--------|
G|------2---2-------2---2-------0---0-------0---0-------4---4-------4---4----|
D|------2---2-------2-----------0---0-------0-----------4---4-------4--------|
A|---------------------------------------------------------------------------|
E|--0-----------0-----------3-----------3-----------2-----------2------------|
                 All I do,             will make everything you touch turn 

e|---------------------------------------------------------------------------|
B|------0---0-------0-----------1---1-------1-----------0---0-------0--------|
G|------0---0-------0---0-------2---2-------2---2-------0---0-------0---0----|
D|------2---2-------2-----------2---2-------2-----------0---0-------0--------|
A|---------------------------------------------------------------------------|
E|--0-----------0-----------0-----------0-----------3-----------3------------|
   gold,       I'm just waiting to pull you through,           yeah I'll

e|---------------------------------------------------------------------------|
B|------3---3-------3-----------0---0-------0-----------1--------------------|
G|------4---4-------4---4-------0---0-------0---0-------2--------------------|
D|------4---4-------4-----------2---2-------2-----------2--------------------|
A|---------------------------------------------------------------------------|
E|--2-----------2-----------0-----------0-----------0------------------------|
  take a little off the load,                    yeah, any reason I get to be

e|---------------------------------------------------------------------------|
B|--2------------------------------------------------------------------------|
G|--0------------------------------------------------------------------------|
D|--1------------------------------------------------------------------------|
A|---------------------------------------------------------------------------|
E|---------------------------------------------------------------------------|
    close to you

e|---------------------------------------------------------------------------|
B|------0---0------0-----------3---0-------0-----------0---1-------1---------|
G|------0---0------0---0-------2---0-------0---0-------0---0-----------0-----|
D|------0---0------0-----------0---0-------0-----------2---2---2-------------|
A|---------------------------------------------------------------------------|
E|--3----------3-----------2-----------3-----------0-------------------------|
                                                     I wanna shout about it

e|---------------------------------------------------------------------------|
B|------0---0-------0----------1-------------------------------1-------------|
G|------0---0-------0---0------2-------------------------------0-------------|
D|------0---0-------0----------2-------------------------------2-------------|
A|---------------------------------------------------------------------------|
E|--3-----------3--------------0-------------------------------0-------------|
                      I'm so sorry I can't stop myself from staring at you,

e|---------------------------------------------------------------------------|
B|--------0-------------------------3----0----3----1-------------------------|
G|--------0-------------------------4----0----2----2-------------------------|
D|--------2-------------------------4----2----0----2-------------------------|
A|---------------------------------------------------------------------------|
E|--------0-------------------------2----0---------0-------------------------|
   When you're tired and blue, my dear, it's just any reason I get to be 

e|---------------------------------------------------------------------------|
B|--1-------3----------------------------------------------------------------|
G|--0-------2----------------------------------------------------------------|
D|--2-------0----------------------------------------------------------------|
A|---------------------------------------------------------------------------|
E|--0------------------------------------------------------------------------|
  closer to you , oooh
  
*START STRUMMING FOR THE LAST PART*

C         D          Em
I wanna shout about it, 

     C          D          Em
Nooo, I'm gonna shout about it,

    C             D
Nooo, I wanna shout the loudest


e|---------------------------------------------------------------------------|
B|------0---0------0-----------3---0-------0-----------0---1-------1---------|
G|------0---0------0---0-------2---0-------0---0-------0---0-----------0-----|
D|------0---0------0-----------0---0-------0-----------2---2---2-------------|
A|---------------------------------------------------------------------------|
E|--3----------3-----------2-----------3-----------0-------------------------|

e|-----3---------------------------------------------------------------------|
B|-----0---------------------------------------------------------------------|
G|-----0---------------------------------------------------------------------|
D|---------------------------------------------------------------------------|
A|---------------------------------------------------------------------------|
E|-----3---------------------------------------------------------------------|


            
            
Suggest correction
Creating personal tab
Creating personal tab
You can edit any tab online and save it as your Personal.

You can edit, replace or remove any tab part or add personal notes – all changes will be seen only by you.

Personal tabs can be accessed anytime from any device, even offline.
Learn more »
comments
print report bad tab
3 comments total.
0 reply
TrisVampsDrums 607 Sep 25, 2015 04:36 PM

Great Tab!!!!!
I think it should go like this:

B|-0-0-0-3-0-0-0-1-1-0-0-0
G|-0-0-0-2-0-0-0-0-0-0-0-0
D|-0-0-0-0-0-0-2-2-2-0-0-0

0 reply
TrisVampsDrums 607 Oct 05, 2015 10:42 PM

Your welcome! Don't really know about the other notes tho

guest
You may want to rate the tab now too:
select rating
Wanna post a correction for this tab? Suggest correction