Oops, an error
Loading. Please wait.

Somebody To You bass

1,003 views 3 this week
1 commentread comment
1 2 3 4 5
x 3
add to favorites
×
Save as Personal and add changes to this tab that will be seen only by you. Learn more ›
×
You can save this tab as Personal to edit and correct it or add notes. All changes will be seen only by you. Learn more »
launch autoscroll
font size
0
reset
guitar tuner
edit
Autoscroll
slow
fast
+/-
esc
set tempo
stop
Author
Somebody To You
Taken from their debut Album Meet The Vamps, this single reached
Number 4 UK in 2014. Bass performance Connor Ball. Tab by bass50611.
As original and very easy song to play. Comments bass254@btinternet.com 

Intro: 
G|-------1------------1---|
D|-1---1---1----1---1---1-|
A|------------------------|
E|------------------------|

Verse 1:                                    (Play This x2)
G|-------1------------1---------------------------------|
D|-1---1---1----1---1---1-------------------------------|
A|-------------------------1---1---1---1----------------|
E|----------------------------------------4---4---4---4-|

Pre-Chorus:                                                  (Break)
G|--------------------------------------------------------------|
D|-1---1---1---1------------------------------------------------|
A|----------------1---1---1---1----3---3---3---3----------------|
E|------------------------------------------------4---4---4---x-|

Chorus:
G|--------------------------------------------------------------|
D|-1---1---1---1------------------------------------------------|
A|----------------1---1---1---1----3---3---3---3----------------|
E|------------------------------------------------4---4---4---4-|

                                                               (Break)
G|---------------------------------------------------------------|
D|-1---1---1---1-------------------------------------------------|
A|----------------1---1---1---1--2--3---3---3---3----------------|
E|-------------------------------------------------4---4---4---4-|

Verse 2:
G|-------1------------1---------------------------------|
D|-1---1---1----1---1---1-------------------------------|
A|-------------------------3---3---3---3----------------|
E|----------------------------------------4---4---4---4-|

G|-------1------------1---------------------------------|
D|-1---1---1----1---1---1-------------------------------|
A|-------------------------1---1---1---1----------------|
E|----------------------------------------4---4---4---4-|

Pre-Chorus:                                                 (Break)
G|--------------------------------------------------------------|
D|-1---1---1---1------------------------------------------------|
A|----------------1---1---1---1----3---3---3---3----------------|
E|------------------------------------------------4---4---4---x-|

Chorus:
G|--------------------------------------------------------------|
D|-1---1---1---1------------------------------------------------|
A|----------------1---1---1---1----3---3---3---3----------------|
E|------------------------------------------------4---4---4---4-|

                                                               (Break)
G|---------------------------------------------------------------|
D|-1---1---1---1-------------------------------------------------|
A|----------------1---1---1---1--2--3---3---3---3----------------|
E|-------------------------------------------------4---4---4---4-|

Pre-Chorus 2:
G|----------------|
D|-SPOKEN NO BASS-|
A|----------------|
E|----------------|

Part Chorus: (NO BASS):

Chorus:
G|--------------------------------------------------------------|
D|-1---1---1---1------------------------------------------------|
A|----------------1---1---1---1----3---3---3---3----------------|
E|------------------------------------------------4---4---4---4-|

G|---------------------------------------------------------------|
D|-1---1---1---1-------------------------------------------------|
A|----------------1---1---1---1--2--3---3---3---3----------------|
E|-------------------------------------------------4---4---4---4-|

Outro:                                                         (End)
G|---------------------------------------------------------------|
D|-1---1---1---1-------------------------------------------------|
A|----------------1---1---1---1--2--3---3---3---3----------------|
E|-------------------------------------------------4---4---4---4-|

I used to want to be
Living like it's only me
And now I spend my time
Thinking ‘bout the way to get you off my mind
I used to be so tough
Never really gave enough
And then you caught my eye
Giving me the feeling of a lightning strike

Look at me now
I'm falling
Can't even talk, still stuttering
This ground of mine keeps shaking
Oh oh oh
Now!

All I want to be
All I ever want to be, yeah, yeah
Is somebody to you
All I want to be
All I ever want to be, yeah, yeah
Is somebody to you

Everbody's tryin' to be a billionaire
But everytime I look at you I just don't care
Cause All I want to be
All I ever want to be, yeah, yeah
Is somebody to you

I used to run around
I didn't want to settle down
But now I wake each day
Looking for a way that I can see your face
I've got your photograph
But baby I need more than that
I need to know your lips
Nothing ever mattered to me more than this

Look at me now
I'm falling
I can't even talk, still stuttering
This ground or mine keeps shaking
Oh oh oh

All I want to be
All I ever want to be, yeah, yeah
Is somebody to you
All I want to be
All I ever want to be, yeah, yeah
Is somebody to you

I used to run around
I didn't want to settle down
But now I wake each day
Looking for a way that I can see your face
I've got your photograph
But baby I need more than that
I need to know your lips
Nothing ever mattered to me more than this

Look at me now
I'm falling
Can't even talk, still stuttering
All I want to be
All I ever want to be, yeah, yeah

All I want to be
All I ever want to be, yeah, yeah
Is somebody to you
All I want to be
All I ever want to be, yeah, yeah
Is somebody to you

All I want to be
All I ever want to be, yeah, yeah
Is somebody to you
All I want to be
All I ever want to be, yeah, yeah
Is somebody to you

Everbody's tryin' to be a billionaire
But everytime I look at you I just don't care
Cause All I want to be
All I ever want to be, yeah, yeah
Is somebody to you

Cause All I want to be
All I ever want to be, yeah, yeah
Is somebody to you

Yeah you

            
            
Suggest correction
Creating personal tab
Creating personal tab
You can edit any tab online and save it as your Personal.

You can edit, replace or remove any tab part or add personal notes – all changes will be seen only by you.

Personal tabs can be accessed anytime from any device, even offline.
Learn more »
Give kudos to tab author, rate the tab!
1 2 3 4 5
comments
print report bad tab
1 comment total.
0 reply
myguitar55 10 May 08, 2017 12:07 PM

didn't like this contribution

guest
You may want to rate the tab now too:
select rating
Wanna post a correction for this tab? Suggest correction