Oops, an error
Loading. Please wait.

Somebody To You tab

1,876 views 36 this week
no commentswrite comment
1 2 3 4 5
x 3
add to favorites
×
Save as Personal and add changes to this tab that will be seen only by you. Learn more ›
×
You can save this tab as Personal to edit and correct it or add notes. All changes will be seen only by you. Learn more »
launch autoscroll
font size
0
reset
how to read this tab
guitar tuner
edit
Autoscroll
slow
fast
+/-
esc
set tempo
stop
Author
Difficulty
[Verse]

e|--------------------------------------------------------------------------|
B|--------------------------------------------------------------------------|
G|------------------1---0----0-------------0------1--0--0-------------------|
D|---1----1----1-------------------1---3------1-----------------------------|
A|--------------------------------------------------------------------------|
E|--------------------------------------------------------------------------|
I used to wanna be living likes it's only me


e|--------------------------------------------------------------------------|
B|--------------------------------------------------------------------------|
G|---------------------0-----------------------0----------------------------|
D|--1---3---3--3---3--------1--3-3--3--3--3-3------3--1--1------------------|
A|--------------------------------------------------------------------------|
E|--------------------------------------------------------------------------|
but now I spend my time thinking about a way to get you off my mind

e|--------------------------------------------------------------------------|
B|--------------------------------------------------------------------------|
G|------------------1---0----0-------------0------1--0--0-------------------|
D|---1----1----1-------------------1---3------1-----------------------------|
A|--------------------------------------------------------------------------|
E|--------------------------------------------------------------------------|
I used to be so tough never really gave enough

e|--------------------------------------------------------------------------|
B|--------------------------------------------------------------------------|
G|---------------------0-------------------------0--------------------------|
D|---3--3---3--3---3-------3--3--3--3--3--3--3-------3---1---1--------------|
A|--------------------------------------------------------------------------|
E|--------------------------------------------------------------------------|
and then you caught my eye giving me the feeling of a lightning strike

e|---3-----1-----3--------------3---1---3---------3---1--3------3---1---3---|
B|---------------------4-----------------------4-------------4--------------|
G|--------------------------------------------------------------------------|
D|--------------------------------------------------------------------------|
A|--------------------------------------------------------------------------|
E|--------------------------------------------------------------------------|
Look at me now, I'm falling    can't even talk still stuttering

e|---3-----1-----3--------------3--------------------------------------6----|
B|---------------------4------------4----1---------1-----3------4-----------|
G|--------------------------------------------------------------------------|
D|--------------------------------------------------------------------------|
A|--------------------------------------------------------------------------|
E|--------------------------------------------------------------------------|
This ground of mine keeps shaking    Oh oh oh NOW!

e|--3---6---6--6---6/3--3----1--1-----------------1-------------------------|
B|---------------------------------4--4---4---4-----------------------------|
G|--------------------------------------------------------------------------|
D|--------------------------------------------------------------------------|
A|--------------------------------------------------------------------------|
E|--------------------------------------------------------------------------|
All I wanna be yeah all I ever wanna be yeah

e|-1--------------4---4----4/3---3------------------------------------------|
B|------4----4--------------------------------------------------------------|
G|--------------------------------------------------------------------------|
D|--------------------------------------------------------------------------|
A|--------------------------------------------------------------------------|
E|--------------------------------------------------------------------------|
Yeah, is somebody to you

e|--3---6---6--6---6/3--3----1--1-----------------1--1---3---1---1----------|
B|---------------------------------4--4---4---4----------------------4------|
G|--------------------------------------------------------------------------|
D|--------------------------------------------------------------------------|
A|--------------------------------------------------------------------------|
E|--------------------------------------------------------------------------|
All I wanna be yeah all I ever wanna be yeah is somebody to you


[Chorus]

e|--3---6---6--6---6/3--3----1--1----3--3-----------------------------------|
B|------------------------------------------4-------------------------------|
G|--------------------------------------------------------------------------|
D|--------------------------------------------------------------------------|
A|--------------------------------------------------------------------------|
E|--------------------------------------------------------------------------|
Everybody's trying to be a billionaire 

e|--3---6---6--6---6/3--3----1--1----3--3-----------------------------------|
B|------------------------------------------4-------------------------------|
G|--------------------------------------------------------------------------|
D|--------------------------------------------------------------------------|
A|--------------------------------------------------------------------------|
E|--------------------------------------------------------------------------|
Everytime I look at you I just don't care

e|--3---6---6--6---6/3--3----1--1-----------------1--1---3---1---1----------|
B|---------------------------------4--4---4---4----------------------4------|
G|--------------------------------------------------------------------------|
D|--------------------------------------------------------------------------|
A|--------------------------------------------------------------------------|
E|--------------------------------------------------------------------------|
Cause all I ever wanna be yeah all I ever wanna be yeah yeah is somebody to you



************************************

| /  Slide up

************************************

            
            
Suggest correction
Creating personal tab
Creating personal tab
You can edit any tab online and save it as your Personal.

You can edit, replace or remove any tab part or add personal notes – all changes will be seen only by you.

Personal tabs can be accessed anytime from any device, even offline.
Learn more »
Give kudos to tab author, rate the tab!
1 2 3 4 5
comments
print report bad tab
guest
You may want to rate the tab now too:
select rating
Wanna post a correction for this tab? Suggest correction