Oops, an error
Loading. Please wait.

Stay tab

version 1
version 1

Whole song

550 views 48 this week
no commentswrite comment
1 2 3 4 5
x 3
add to favorites
×
Save as Personal and add changes to this tab that will be seen only by you. Learn more ›
×
You can save this tab as Personal to edit and correct it or add notes. All changes will be seen only by you. Learn more »
launch autoscroll
font size
0
reset
how to read this tab
guitar tuner
edit
Autoscroll
slow
fast
+/-
esc
set tempo
stop
[Intro]
   E
e|---------------------------------------------------------------------------|
B|---------------------------------------------------------------------------|
G|-----1-1-----1-1-----1-1-----1h2-2-----1-1-----1-1-----1-1-----1h2-2-------|
D|---------------------------------------------------------------------------|
A|---------------------------------------------------------------------------|
E|-0-0-----0-0-----0-0-----0-0-------0-0-----0-0-----0-0-----0-0-------------|

[Verse]
   E
e|---------------------------------------------------------------------------|
B|---------------------------------------------------------------------------|
G|-----1-1-----1-1-----1-1-----1h2-2-----1-1-----1-1-----1-1-----1h2-2-------|
D|---------------------------------------------------------------------------|
A|---------------------------------------------------------------------------|
E|-0-0-----0-0-----0-0-----0-0-------0-0-----0-0-----0-0-----0-0-------------|

   A                              E
e|---------------------------------------------------------------------------|
B|----------------------------0-0--------------------------------------------|
G|-----1-1----1-1-----1-1-------------1-1-----1-1-----1-1-----1h2-2----------|
D|---------------------------------------------------------------------------|
A|-0-0-----0-0----0-0-----0-0------------------------------------------------|
E|--------------------------------0-0-----0-0-----0-0-----0-0----------------|

   E
e|---------------------------------------------------------------------------|
B|---------------------------------------------------------------------------|
G|-----1-1-----1-1-----1-1-----1h2-2-----1-1-----1-1-----1-1-----1h2-2-------|
D|---------------------------------------------------------------------------|
A|---------------------------------------------------------------------------|
E|-0-0-----0-0-----0-0-----0-0-------0-0-----0-0-----0-0-----0-0-------------|
   A                              E

e|---------------------------------------------------------------------------|
B|----------------------------0-0--------------------------------------------|
G|-----1-1----1-1-----1-1-------------1-1-----1-1-----1-1-----1-1------------|
D|---------------------------------------------------------------------------|
A|-0-0-----0-0----0-0-----0-0------------------------------------------------|
E|--------------------------------0-0-----0-0-----0-0-----0-0----------------|

[Pre-chorus]
   A                               E
e|---------------------------------------------------------------------------|
B|-----2-2-----2-2-----2-2-----2-2-------------------------------------------|
G|-----2-2-----2-2-----2-2-----2-2-----1-1-----1-1-----1-1-----1-1-----------|
D|-------------------------------------2-2-----2-2-----2-2-----2-2-----------|
A|-0-0-----0-0-----0-0-----0-0-----------------------------------------------|
E|---------------------------------0-0-----0-0-----0-0-----0-0---------------|

   F#m                             B               
e|-----------------------------------------------------7----------------------|
B|-------------------------------------4-4-----4------7-----------------------|
G|-----2-2-----2-2-----2-2-----2-2-----4-4-----4-----8------------------------|
D|-----4-4-----4-4-----4-4-----4-4------------------9-------------------------|
A|---------------------------------2-2-----2-2--------------------------------|
E|-2-2-----2-2-----2-2-----2-2------------------------------------------------|

[Chorus]
   E                               B
e|---------------------------------------------------------------------------|
B|-----9-9-----9-9-----9-9-----9-9-----4-4-----4-4-----4-4-----4-4-----------|
G|-----9-9-----9-9-----9-9-----9-9-----4-4-----4-4-----4-4-----4-4-----------|
D|---------------------------------------------------------------------------|
A|-7-7-----7-7-----7-7-----7-7-----2-2-----2-2-----2-2-----2-2---------------|
E|---------------------------------------------------------------------------|

   C#m                             A
e|-------------------------------------0-0-----0-0-----0-0-----0-0-----------|
B|-----5-5-----5-5-----5-5-----5-5-----2-2-----2-2-----2-2-----2-2-----------|
G|-----6-6-----6-6-----6-6-----6-6-------------------------------------------|
D|---------------------------------------------------------------------------|
A|-4-4-----4-4-----4-4-----4-4-----0-0-----0-0-----0-0-----0-0---------------|
E|---------------------------------------------------------------------------|

   E                               B
e|---------------------------------------------------------------------------|
B|-----9-9-----9-9-----9-9-----9-9-----4-4-----4-4-----4-4-----4-4-----------|
G|-----9-9-----9-9-----9-9-----9-9-----4-4-----4-4-----4-4-----4-4-----------|
D|---------------------------------------------------------------------------|
A|-7-7-----7-7-----7-7-----7-7-----2-2-----2-2-----2-2-----2-2---------------|
E|---------------------------------------------------------------------------|

   C#m                             A
e|-------------------------------------0-0-----0-0-----0-0-----0-0-----------|
B|-----5-5-----5-5-----5-5-----5-5-----2-2-----2-2-----2-2-----2-2-----------|
G|-----6-6-----6-6-----6-6-----6-6-------------------------------------------|
D|---------------------------------------------------------------------------|
A|-4-4-----4-4-----4-4-----4-4-----0-0-----0-0-----0-0-----0-0---------------|
E|---------------------------------------------------------------------------|

[Interlude]
   E
e|---------------------------------------------------------------------------|
B|---------------------------------------------------------------------------|
G|-----1-1-----1-1-----1-1-----1h2-2-----------------------------------------|
D|---------------------------------------------------------------------------|
A|---------------------------------------------------------------------------|
E|-0-0-----0-0-----0-0-----0-0-----------------------------------------------|

[Verse]
   E
e|---------------------------------------------------------------------------|
B|---------------------------------------------------------------------------|
G|-----1-1-----1-1-----1-1-----1h2-2-----1-1-----1-1-----1-1-----1h2-2-------|
D|---------------------------------------------------------------------------|
A|---------------------------------------------------------------------------|
E|-0-0-----0-0-----0-0-----0-0-------0-0-----0-0-----0-0-----0-0-------------|

   A                              E
e|---------------------------------------------------------------------------|
B|----------------------------0-0--------------------------------------------|
G|-----1-1----1-1-----1-1-------------1-1-----1-1-----1-1-----1-1------------|
D|---------------------------------------------------------------------------|
A|-0-0-----0-0----0-0-----0-0------------------------------------------------|
E|--------------------------------0-0-----0-0-----0-0-----0-0----------------|

[Pre-chorus]
   A                               E
e|---------------------------------------------------------------------------|
B|-----2-2-----2-2-----2-2-----2-2-------------------------------------------|
G|-----2-2-----2-2-----2-2-----2-2-----1-1-----1-1-----1-1-----1-1-----------|
D|-------------------------------------2-2-----2-2-----2-2-----2-2-----------|
A|-0-0-----0-0-----0-0-----0-0-----------------------------------------------|
E|---------------------------------0-0-----0-0-----0-0-----0-0---------------|

   F#m                             B               
e|-----------------------------------------------------7----------------------|
B|-------------------------------------4-4-----4------7-----------------------|
G|-----2-2-----2-2-----2-2-----2-2-----4-4-----4-----8------------------------|
D|-----4-4-----4-4-----4-4-----4-4------------------9-------------------------|
A|---------------------------------2-2-----2-2--------------------------------|
E|-2-2-----2-2-----2-2-----2-2------------------------------------------------|

[Chorus]
   E                               B
e|---------------------------------------------------------------------------|
B|-----9-9-----9-9-----9-9-----9-9-----4-4-----4-4-----4-4-----4-4-----------|
G|-----9-9-----9-9-----9-9-----9-9-----4-4-----4-4-----4-4-----4-4-----------|
D|---------------------------------------------------------------------------|
A|-7-7-----7-7-----7-7-----7-7-----2-2-----2-2-----2-2-----2-2---------------|
E|---------------------------------------------------------------------------|

   C#m                             A
e|-------------------------------------0-0-----0-0-----0-0-----0-0-----------|
B|-----5-5-----5-5-----5-5-----5-5-----2-2-----2-2-----2-2-----2-2-----------|
G|-----6-6-----6-6-----6-6-----6-6-------------------------------------------|
D|---------------------------------------------------------------------------|
A|-4-4-----4-4-----4-4-----4-4-----0-0-----0-0-----0-0-----0-0---------------|
E|---------------------------------------------------------------------------|

   E                               B
e|---------------------------------------------------------------------------|
B|-----9-9-----9-9-----9-9-----9-9-----4-4-----4-4-----4-4-----4-4-----------|
G|-----9-9-----9-9-----9-9-----9-9-----4-4-----4-4-----4-4-----4-4-----------|
D|---------------------------------------------------------------------------|
A|-7-7-----7-7-----7-7-----7-7-----2-2-----2-2-----2-2-----2-2---------------|
E|---------------------------------------------------------------------------|

   C#m                             A
e|-------------------------------------0-0-----0-0-----0-0-----0-0-----------|
B|-----5-5-----5-5-----5-5-----5-5-----2-2-----2-2-----2-2-----2-2-----------|
G|-----6-6-----6-6-----6-6-----6-6-------------------------------------------|
D|---------------------------------------------------------------------------|
A|-4-4-----4-4-----4-4-----4-4-----0-0-----0-0-----0-0-----0-0---------------|
E|---------------------------------------------------------------------------|

[Bridge]
   E                               B
e|---------------------------------------------------------------------------|
B|-----9-9-----9-9-----9-9-----9-9-----4-4-----4-4-----4-4-----4-4-----------|
G|-----9-9-----9-9-----9-9-----9-9-----4-4-----4-4-----4-4-----4-4-----------|
D|---------------------------------------------------------------------------|
A|-7-7-----7-7-----7-7-----7-7-----2-2-----2-2-----2-2-----2-2---------------|
E|---------------------------------------------------------------------------|

   C#m                             A
e|-------------------------------------0-0-----0-0-----0-0-----0-0-----------|
B|-----5-5-----5-5-----5-5-----5-5-----2-2-----2-2-----2-2-----2-2-----------|
G|-----6-6-----6-6-----6-6-----6-6-------------------------------------------|
D|---------------------------------------------------------------------------|
A|-4-4-----4-4-----4-4-----4-4-----0-0-----0-0-----0-0-----0-0---------------|
E|---------------------------------------------------------------------------|

   E                               B
e|---------------------------------------------------------------------------|
B|-----9-9-----9-9-----9-9-----9-9-----4-4-----4-4-----4-4-----4-4-----------|
G|-----9-9-----9-9-----9-9-----9-9-----4-4-----4-4-----4-4-----4-4-----------|
D|---------------------------------------------------------------------------|
A|-7-7-----7-7-----7-7-----7-7-----2-2-----2-2-----2-2-----2-2---------------|
E|---------------------------------------------------------------------------|

   C#m                             A
e|-------------------------------------0-0-----0-0-----0-0-----0-0-----------|
B|-----5-5-----5-5-----5-5-----5-5-----2-2-----2-2-----2-2-----2-2-----------|
G|-----6-6-----6-6-----6-6-----6-6-------------------------------------------|
D|---------------------------------------------------------------------------|
A|-4-4-----4-4-----4-4-----4-4-----0-0-----0-0-----0-0-----0-0---------------|
E|---------------------------------------------------------------------------|

[Outro]
   E                 B                   C#m                 A         
e|---------------------------------------------------------------------------|
B|-------------------4-------------------5-------------------2---------------|
G|-------------------4-------------------6-------------------2---------------|
D|---------------------------------------------------------------------------|
A|-------------------2-------------------4-------------------0---------------|
E|-0-------------------------------------------------------------------------|


************************************

| h   Hammer-on

************************************                                                                            

            
            
Suggest correction
Creating personal tab
Creating personal tab
You can edit any tab online and save it as your Personal.

You can edit, replace or remove any tab part or add personal notes – all changes will be seen only by you.

Personal tabs can be accessed anytime from any device, even offline.
Learn more »
Give kudos to tab author, rate the tab!
1 2 3 4 5
comments
print report bad tab
guest
You may want to rate the tab now too:
select rating
Wanna post a correction for this tab? Suggest correction