Oops, an error
Loading. Please wait.

Here Comes The Light Tab

598 views 1 this week
no commentswrite comment
1 2 3 4 5
please rate
add to favorites
launch autoscroll
font size
0
reset
how to read this tab
guitar tuner
Autoscroll
slow
fast
+/-
esc
set tempo
stop
Help us to improve Ultimate-Guitar.com Take our survey!
×
Author
Jasper121 532
The Van Jets – Here Comes The Light
Tabbed by Jasper121

Standard Tuning
Alt. Gospel version: http://www.youtube.com/watch?v=FQfC40gcGIU

Intro
e|--------/0-0-0-0-0-0-0-0----------9--9-9-------------------------(7)--|
B|-8--8---/101010108-8-8-8--8--8-----------8b--8--8—7p8-8-8-7--8-8-(7)--|
G|-9--9---/9-9-9-9-7-7-7-7--9--9---------------9--9------------9-9-(7)--|
D|-8--8---------------------8--8---------------8--8------------8-8-(7)--|
A|-7--7---------------------7--7---------------7--7------------7-7-(7)--|
E|-----------------------------------------------------------------(7)--|

Verse
e|----------------------------------------------------------------------|
B|----------------------------------------------------------------------|
G|----------------------------------------------------------------------|
D|--------------5-5-----------------5-5---------------------------------|
A|--7--7------5-----5---7--7------5-----5----------5--------------------|
E|---------5p7----------------5p7---------7--7—5p7---7----5-5-5--3-3--3-|
Inside , so there's gotta start inside
Wonder what's on the outside 
Closed doors, closed hearts

Up for it from a to z I'm up for it
Ah, so get down on it
On every letter of the alphabet

Chorus
E               B               G
Oh here comes the light
                A       G F# E       B  A  G F#
See it tumbling down the sky
E       B               G
Open up the doors
  A      G  F# E         B      A   G  F#
We've been waiting for so long, So long, so long

Back to Intro
e|--------/0-0-0-0-0-0-0-0------(7)--|
B|-8--8---/101010108-8-8-8--8-8-(7)--|
G|-9--9---/9-9-9-9-7-7-7-7--9-9-(7)--|
D|-8--8---------------------8-8-(7)--|
A|-7--7---------------------7-7-(7)--|
E|------------------------------(7)--|

Verse II
Uptight , you got me feeling all uptight
Not even thinking 'bout the downside
Wonder if there is any

e|----------------------------------------------------------------------|
B|--8-8-8----------------8-8-7b-----------------------------------------|
G|--9-9-9----------------9-9-9------------------------------------------|
D|--8-8-8--------5-5-----8-8-8-------5-5--------------------------------|
A|--7-7-7------5-----5---7-7-7-----5-----5----------5-------------------|
E|--------5p7------------------5p7---------7--7—5p7---7---5-5-5--3-3--3-|
From the peak, I'm crawling out I've went to sleep
To climb down so high 
And now the mistery of space and time

Chorus
E               B               G
Oh here comes the light
                A       G F# E       B  A  G F#
See it tumbling down the sky
E       B               G
Open up the doors
  A      G      A#                      B    C    C#     D 
We've been waiting for so long, So long, so long

Bridge
F
And in the end
A victory march 
Will beat up our hearts 
And ours hearts will beat
Together again, together again

Solo 
e|------/0-0-0-0-0-0-0-0------9-9-9-------------------------------------|
B|-8-8--/101010108-8-8-8--8-8-------8b----—--------------------------5-5|
G|-9-9--/9-9-9-9-7-7-7-7--9-9---------------------------------5-5-7-7---|
D|-8-8--------------------8-8---------------------5---5-5-7-7-----------|
A|-7-7--------------------7-7-------------5---5p7---7-------------------|
E|------------------------------------5p7---7---------------------------|

e|-------------------------------------------------------------|
B|-5-5-5-5-5-5-5---7-5-5-7-5-5-7-5-8-5-5-8-5-5-8-5-------------|
G|-------------------------------------------------------------|
D|-------------------------------------------------------------|
A|-------------------------------------------------------------|
E|-------------------------------------------------------------|

e|-------------------------------------------------------------|
B|--7-5-5-7-5-7-5-8-5-5-8-5-8-5-10-10-12-12-12-----------------|
G|-------------------------------------------------------------|
D|-------------------------------------------------------------|
A|-------------------------------------------------------------|
E|-------------------------------------------------------------|

e|-------------------------------------------------------------|
B|-12-12-12-13-13-13-14-14-15-15-15----------------------------|
G|-------------------------------------------------------------|
D|-------------------------------------------------------------|
A|-------------------------------------------------------------|
E|-------------------------------------------------------------|
Then back to chorus + chorus (without guitar) 
Suggest correction new What's this?
You can suggest a correction to this tab. Community and Mods will review your correction and vote to approve or reject it.
comments
We did not receive enough feedback on this tab! Please rate:
print report bad tab
1 2 3 4 5
guest
You may want to rate the tab now too:
select rating
Please do not post tabs as comments. Select "correction" instead!