Oops, an error
Loading. Please wait.

High Heels Tab

425 views 1 this week
no commentswrite comment
1 2 3 4 5
please rate
add to favorites
launch autoscroll
font size
0
reset
how to read this tab
guitar tuner
Autoscroll
slow
fast
+/-
esc
set tempo
stop
Help us to improve Ultimate-Guitar.com Take our survey!
×
Author
Difficulty
intermediate
-------------------------------------------------------------------------------
                             High Heels - The Van Jets
-------------------------------------------------------------------------------
Tabbed by: Felix G.
Email: dahousecatfelix@hotmail.com

This is the best belgian music!
Comments are welcome!

Tuning: Standard

Intro
e|-5---5-3---3-4---4-3---3-5---5-3---3-4---4-3-------------------------------|
B|-5---5-5---5-5---5-5---5-5---5-5---5-5---5-5-------------------------------|
G|---------------------------------------------------------------------------|
D|---------------------------------------------------------------------------|
A|---------------------------------------------------------------------------|
E|---------------------------------------------------------------------------|

e|---------------------------------------------------------------------------|
B|-5-5-5-5-5-5b-5-5-5-5b-5-5-5-5b-3~~----------------------------------------|
G|---------------------------------------------------------------------------|
D|---------------------------------------------------------------------------|
A|---------------------------------------------------------------------------|
E|---------------------------------------------------------------------------|

Main Riff
e|---------------------------------------------------------------------------| x2
B|---------------------------------------------------------------------------|
G|-----4---5---3------------------4---5---3----------------------------------|
D|-2---4---5---3-5---3-3-3/5--2---4---5---3-5---7-7-7/14---------------------|
A|-2---2---3---1-5---3-3-3/5--2---2---3---1-5---7-7-7/14---------------------|
E|-0-----0---0---3---1-1-1/3--0-----0---0---3---5-5-5/12---------------------|

Riff 2
e|---------------------------------------------------------------------------|
B|---------------------------------------------------------------------------|
G|---------------------------------------------------------------------------|
D|-4-4-4-----5-5-5-----6-6-6-----5-5-5-----4-4-4-----5-5-5-----6-6-6------7--|
A|-2-2-2---2-3-3-3---3-4-4-4---4-3-3-3---3-2-2-2---2-3-3-3---3-4-4-4---4--5--|
E|-------2---------3---------4---------3---------2---------3---------4-------|
  Heaven’s high, high on my heels...

Main Riff
e|---------------------------------------------------------------------------| x2
B|---------------------------------------------------------------------------|
G|-----4---5---3------------------4---5---3----------------------------------|
D|-2---4---5---3-5---3-3-3/5--2---4---5---3-5---7-7-7/14---------------------|
A|-2---2---3---1-5---3-3-3/5--2---2---3---1-5---7-7-7/14---------------------|
E|-0-----0---0---3---1-1-1/3--0-----0---0---3---5-5-5/12---------------------|

Riff 2
e|---------------------------------------------------------------------------|
B|---------------------------------------------------------------------------|
G|---------------------------------------------------------------------------|
D|-4-4-4-----5-5-5-----6-6-6-----5-5-5-----4-4-4-----5-5-5-----6-6-6------7--|
A|-2-2-2---2-3-3-3---3-4-4-4---4-3-3-3---3-2-2-2---2-3-3-3---3-4-4-4---4--5--|
E|-------2---------3---------4---------3---------2---------3---------4-------|
  Heaven’s high, high on my heels...

Bridge (Not sure about this part, there are 2 guitars)
e|---------------------------------------------------------------------------|
B|---------------------------------------------------------------------------|
G|----------------------------11b-11-9----9b-9-------------------------------|
D|-----------4-2------5-9-7------------12------------------------------------|
A|-2---2-4-5-2-0--5-7-3-7-5--------------------------------------------------|
E|-0---0-2-3------3-5--------------------------------------------------------|

Riff 3
e|---------------------------------------------------------------------------| x2
B|---------------------------------------------------------------------------|
G|---------------------------------------------------------------------------|
D|-4-4-4-----5-5-5-----6-6-6-----5-5-5---------------------------------------|
A|-2-2-2---2-3-3-3---3-4-4-4---4-3-3-3---3-----------------------------------|
E|-------2---------3---------4---------3-------------------------------------|

Riff 4
e|---------------------------------------------------------------------------| x2
B|---------------------------------------------------------------------------|
G|---------------------------------------------------------------------------|
D|-4---------5---------6---------5-------------------------------------------|
A|-2-------2-3-------3-4-------4-3-------3-----------------------------------|
E|-------2---------3---------4---------3-------------------------------------|

e|---------------------------------------------------------------------------| x4
B|-7-5-----------------------------------------------------------------------|
G|-----7-4-7-5-4---6-4----7-5-4----(7~~)-------------------------------------|
D|---------------7----7-5-------7--------------------------------------------|
A|---------------------------------------------------------------------------|
E|---------------------------------------------------------------------------|
  Play (7~~) only the 4th time.

Main Riff
e|---------------------------------------------------------------------------|
B|---------------------------------------------------------------------------|
G|-----4---5---3------------------4---5---3----------------------------------|
D|-2---4---5---3-5---3-3-3/5--2---4---5---3-5---7-7-7/14---------------------|
A|-2---2---3---1-5---3-3-3/5--2---2---3---1-5---7-7-7/14---------------------|
E|-0-----0---0---3---1-1-1/3--0-----0---0---3---5-5-5/12---------------------|

e|---------------------------------------------------------------------------|
B|---------------------------------------------------------------------------|
G|-----4---5---3------------------4---5---3----------------------------------|
D|-2---4---5---3-5---3-3-3/5--2---4---5---3-5---7--2-------------------------|
A|-2---2---3---1-5---3-3-3/5--2---2---3---1-5---7--2-------------------------|
E|-0-----0---0---3---1-1-1/3--0-----0---0---3---5--0-------------------------|

END

| /  slide up
| \  slide down
| h  hammer-on
| p  pull-off
| ~  vibrato
| +  harmonic
| x  Mute note
| b  Bend
===============================================================================
Suggest correction
Give kudos to tab author, rate the tab!
1 2 3 4 5
comments
print report bad tab
guest
You may want to rate the tab now too:
select rating
Please do not post tabs as comments. Select "correction" instead!