Oops, an error
Loading. Please wait.

The Future Tab

5,160 views 12 this week
2 commentsread comments
1 2 3 4 5
x 3
add to favorites
launch autoscroll
font size
0
reset
how to read this tab
guitar tuner
Autoscroll
slow
fast
+/-
esc
set tempo
stop
Help us to improve Ultimate-Guitar.com Take our survey!
×
Author
Difficulty
intermediate
The Van Jets - The Future

Chords
   E A D G B e
   | | | | | |
F  1 3 3 2 1 1
   | | | | | |
G  3 5 5 4 3 3
   | | | | | |
Am x 0 2 2 1 0
   | | | | | |
C  x 3 5 5 5 3
   | | | | | |
D7 0 5 7 7 0 0


Intro
e|-------7-----|
B|---6-------6-|
G|-7---7---7---|
D|-------------|     X4
A|-------------|
E|-------------|

Fill
e|-----------------------------------00000-|
B|-----------------------------------00000-|
G|-----------------------------------77777-|     X2
D|-----------------------------------77777-|
A|-----------------------------------55555-|
E|-5-4-5-4-5--5-4-5-4-5--5-4-5-4-5---00000-|


Verse 1

G                           Am
Wicked warriors grown up on bites and bore
G                       Am
Wear the uniforms but desert the war

Bridge

D7
Try not to...
Am              G
Try not to understand it
D7
Too young to choose
Am                 G
Still want to be a bird, cut loose

Chorus

F              C
Don't mind the future
      Am                      G
We'll live, we'll live, we'll live, we'll live again
F                  C
In a time when you want it
     Am                  G
It's all, it's all, it's all in your head
F              C
Don't mind the future
      Am                      G
We'll live, we'll live, we'll live in your head
F       C    Am D
in your head


Verse 2
G                          Am
Put your life on hold, for now, we never get old
G                         Am
Spending father's cash on Moroccan hash

Bridge

D7
Try not to...
Am              G
Try not to understand it
D7
Too young to choose
Am                 G
Still want to be a bird, cut loose

Chorus

F              C
Don't mind the future
      Am                      G
We'll live, we'll live, we'll live, we'll live again
F                  C
In a time when you want it
     Am                  G
It's all, it's all, it's all in your head
F              C
Don't mind the future
      Am                      G
We'll live, we'll live, we'll live in your head
F       C     Am      D
in your head, in your head

Fill
e|-----------------------------------00000-|
B|-----------------------------------00000-|
G|-----------------------------------77777-|     X2
D|-----------------------------------77777-|
A|-----------------------------------55555-|
E|-5-4-5-4-5--5-4-5-4-5--5-4-5-4-5---00000-|

Bridge

D7
Try not to...
Am              G
Try not to understand it
D7
Too young to choose
Am                 G
Still want to be a bird, cut loose


Riff
   F             C             Am            G
e|-------1-------------0-------------0-------------3-----|
B|---1-------1-----1-------1-----1-------1-----0-------0-|
G|-2---2---2-----0---0---0-----2---2---2-----0---0---0---|
D|-------------------------------------------------------|
A|-------------------------------------------------------|
E|-------------------------------------------------------|

F(Riff)        C (Riff)
Don't mind the future
      Am(Riff)                G(Riff)
We'll live, we'll live, we'll live, we'll live again
F(Riff)            C(Riff)
In a time when you want it
     Am(Riff)            G(Riff)
It's all, it's all, it's all in your head
F(Riff)        C(Riff)
Don't mind the future
      Am(Riff)                G(Riff)
We'll live, we'll live, we'll live, we'll live again
F(Riff)            C(Riff)
In a time when you want it
     Am(Riff)            G
It's all, it's all, it's all in your head
F(Riff)        C(Riff)
Don't mind the future
      Am(Riff)                G(Riff)
We'll live, we'll live, we'll live in your head
F       C             Am            G
in your head, in your head, in your head
        F       C     Am      G
in your head...
        F       C     Am      G
in your head...
F              C     Am      G
Don't mind the future...
F              C      Am      G
Don't mind the future...
F              C
Don't mind the future
      Am                      G
We'll live, we'll live, we'll live in your head
F       C             Am            D
in your head, in your head, in your head
Suggest correction
Give kudos to tab author, rate the tab!
1 2 3 4 5
comments
print report bad tab
2 comments total.
0 reply
Tariso 243 Nov 18, 2013 01:49 PM

Fill
e|-----------------------------------00000-|
B|-----------------------------------00000-|
G|-----------------------------------77777-| X2
D|-----------------------------------77777-|
A|-----------------------------------55555-|
E|-5-4-5-4-5--5-4-5-4-5--5-4-5-4-5---00000-|


Doesn't sound right. should be more like

Fill
e|-----------------------------------00000-|
B|-----------------------------------00000-|
G|-----------------------------------00000-| X2
D|-----------------------------------00000-|
A|-----------------------------------55555-|
E|-5-3-5-3-5--5-3-5-3-5--5-3-5-3-5---33333-|

0 reply
Tariso 243 Nov 18, 2013 01:50 PM

Fill
e|-----------------------------------33333-|
B|-----------------------------------00000-|
G|-----------------------------------00000-| X2
D|-----------------------------------00000-|
A|-----------------------------------22222-|
E|-5-3-5-3-5--5-3-5-3-5--5-3-5-3-5---33333-|



Even better

guest
You may want to rate the tab now too:
select rating
Wanna post a correction for this tab? Suggest correction